Megadeth - Shewolf Outro Solo Chords & Tabs

 

Shewolf Outro Solo Chords & Tabs

Megadeth Chords & Tabs

Version: 1 Type: Tab 0 ratings
1 star 2 stars 3 stars 4 stars 5 stars
comments

Shewolf Outro Solo Tab

   
She-Wolf - Megadeth
from the album Cryptic Writings
Transcribed by Akshay Rao 11/04/2002
I have transcribed only the outro solo
Thank You
Akshay Rao
a_thegreatone@email.com

Outro Solo

Guitar 1:
|---------------------------------|-6----------------------|
|--------3-4-6----4-3-4---3-------|-----9-8-6-9-8-6--------|
|-/5------------------------5-3---|-----------------8------|
|---------------------------------|-------------------6----|
|---------------------------------|------------------------|
|---------------------------------|------------------------|

|----------------|-------------------------------|
|----------------|-------------------------------|
|----------------|-------------------------------|
|------8------6--|-----5---5---5-6-5-8---6---6-8-|
|-8-10----6-8----|-6-8---8---8---------8---8-----|
|----------------|-------------------------------|

Part A
Harmony w/ Guitar 2
 
|---------------------------------|-6----------------------------|\
|--------3-4-6----4-3-4---3-------|-----9-8-6-9-8-6--------------| \
|-/5------------------------5-3---|--------------------8---------|  \ Guitar 1
|---------------------------------|------------------------6-----|  /
|---------------------------------|------------------------------| /
|---------------------------------|------------------------------|/
|                                 |                              |
|---------------------------------|10----------------------------|\
|--------6-8-9----8-6-8---6-------|----13-11-9-13-11-9-----------| \ 
|-/8------------------------8-7---|------------------------------|  \
|---------------------------------|--------------------13-10-----|  / Guitar 2
|---------------------------------|------------------------------| /
|---------------------------------|------------------------------|/

|-----------------------------------------------|\
|-----------------------------------------------| \
|-----------------------------------------------|  \ Guitar 1
|------8------6-------5---5---5-6-5-8---6---6-8-|  /
|-8-10----6-8-----6-8---8---8---------8---8-----| /
|-----------------------------------------------|/
|                                               |               
|-----------------------------------------------|\
|-----------------------------------------------| \
|------7------5-------4---4---4-5-4-7---5---5-7-|  \
|-8-10----6-8-----5-6---6---6---------6---6-----|  / Guitar 2
|-----------------------------------------------| /
|-----------------------------------------------|/

Part B
In the first two bars Guitar 1 and 2 harmonise. In the last two bars,
Guitar 3 is overdubbed to harmonise with Guitar 1 and 2.
Do Not play Guitar 3 in First two bars.
[ Tab from: http://www.guitartabs.cc/tabs/m/megadeth/shewolf_outro_solo_tab.html ]
|----------------------------------------------------------------|\
|----------------------------------------------------------------| \
|-----8-7----7-8-----8-7----7-8-----8-7----7-8-----8-7----7-8----|  \ Guitar 1
|-10------10------8------10------6------10-------------10--------|  /
|----------------------------------------------10----------------| /
|----------------------------------------------------------------|/
|                                                                |
|----------------------------------------------------------------|\
|-----8-6----6-8-----8-6----6-8-----8-6---6-8------8-6----6-8----| \ 
|--8------8-------7------8-------5------8--------------8---------|  \
|----------------------------------------------9-----------------|  / Guitar 2
|----------------------------------------------------------------| /
|----------------------------------------------------------------|/
|                                                                |
|-----8-6---6-8------8-6----6-8-----8-6---6-8------8-6----6-8----|\
|--8------8-------6------8--------------8--------------8---------| \ 
|--------------------------------8-------------7-----------------|  \
|----------------------------------------------------------------|  / Guitar 3
|----------------------------------------------------------------| /
|----------------------------------------------------------------|/

Part C
Repeat Twice
|------------------------------------------------------------|\
|------------------------------------------------------------| \
|*-5----8--8--8---7h8p7p5----8-----8--8--8---7h8p7p5----8----|  \ Guitar 1
|*------------------------------8-------------------------6--|  /
|------------------------------------------------------------| /
|------------------------------------------------------------|/
|                                                            |
|------------------------------------------------------------|\
|------------------------------------------------------------| \
|*-8---12-12-12--10h12p10p8-12----12-12-12--10h12p10p8-12----|  \ Guitar 2
|*-----------------------------12-------------------------10-|  /
|------------------------------------------------------------| /
|------------------------------------------------------------|/


|-----------------------------------------------------------|\
|-----------------------------------------------------------| \
|-8--8--8---7h8p7p5----8-----8--8--8---7h8p7p5----8-[5]----*|  \ Guitar 1
|-------------------------5--------------------------------*|  /
|-----------------------------------------------------------| /
|-----------------------------------------------------------|/
|                                                           |
|-----------------------------------------------------------|\
|-----------------------------------------------------------| \
|12-12-12--10h12p10p8-12----12-12-12--10h12p10p8-12-[12]---*|  \ Guitar 2
|-------------------------9--------------------------------*|  /
|-----------------------------------------------------------| /
|-----------------------------------------------------------|/

The notes in the [brackets] are the first notes of the second bar, respectively.

Tab notation-
p - pull off
h -hammer on
/ - slide rom below (5/7)
\ - slide from above(7\5)
Comments