Megadeth - Shadow Of Deth Chords & Tabs

 

Shadow Of Deth Chords & Tabs

Megadeth Chords & Tabs

Version: 2 Type: Tab 0 ratings
1 star 2 stars 3 stars 4 stars 5 stars
comments

Shadow Of Deth Tab

                      Shadow of Deth - Megadeth

Album: The System Has Failed
Tuning: Standard





Rhythm|-------------------------------------------------------------------|
      |-------------------------------------------------------------------|
      |-------------------------------------------------------------------|
      |-------------------------------------------------------------------|
      |-------------------------------------------------------------------|
      |-3--0--1--2--------------------------------------------------------|
PM      .  .  .  .



                               Solo 1
Lead  |-------------------------------------------------------------------|
      |-------------------------------------------------------------------|
      |--------7----9------9----7----------7--------10---9----9-----7-----|
      |--7----------------------------10------------------------------8---|
      |-------------------------------------------------------------------|
      |-------------------------------------------------------------------|

      |-------------------------------------------------------------------|
      |-------------------8-----------------------------------------------|
      |------7----9----------------9----7----7----------------------------|
      |--7-----------------------------------------10---8----10---7---8---|
      |-------------------------------------------------------------------|
      |-------------------------------------------------------------------|

                               Solo 2
      |-------------------------------------------------------------------|
      |-------------------------------------------------------------------|
      |------7--10--9--7--9--10-------7--10--9--7--10--9--7---------------|
      |---7------------------------7--------------------------------------|
      |-------------------------------------------------------------------|
      |-------------------------------------------------------------------|

      |-------------------------------------------------------------------|
      |------------------------------------8------------------------------|
      |-----7--10--9--7--9--10-----7--10------10-9-10-7-------------------|
      |--7----------------------7-----------------------------------------|
      |-------------------------------------------------------------------|
      |-------------------------------------------------------------------|

      |-------------------------------------------------------------------|
      |-------------------------------------------------------------------|
      |------7--10--9--7--9--10-------7--10--9--7--10--9--7---------------|
      |---7------------------------7--------------------------------------|
      |-------------------------------------------------------------------|
      |-------------------------------------------------------------------|

      |-------------------------------------------------------------------|
      |-----------------------------------8-------------------------------|
      |-----7--10--9--7--9--10-----7--10------10-9-10-9-------------------|
      |--7----------------------7-----------------------12-10-------------|
      |-------------------------------------------------------12----------|
      |-------------------------------------------------------------------|

[ Tab from: http://www.guitartabs.cc/tabs/m/megadeth/shadow_of_deth_tab_ver_2.html ]
      |-------------------------------------------------------------------|
      |-------------------------------------------------------------------|
      |----9--12-11-9-11-12-----9--12--11--9--12-11--9--------------------|
      |--9-------------------9--------------------------------------------|
      |-------------------------------------------------------------------|
      |-------------------------------------------------------------------|


      |-------------------------------------------------------------------|
      |-----------------------------10------------------------------------|
      |----9--12-11-9-11-12---9-12-----12-11-9----------------------------|
      |--9------------------9---------------------------------------------|
      |-------------------------------------------------------------------|
      |-------------------------------------------------------------------|

      |-------------------------------------------------------------------|
      |-------------------------------------------------------------------|
      |----9--12-11-9-11-12-----9--12--11--9--12-11--9--------------------|
      |--9-------------------9--------------------------------------------|
      |-------------------------------------------------------------------|
      |-------------------------------------------------------------------|


      |-------------------------------------------------------------------|
      |-----------------------------10------------------------------------|
      |----9--12-11-9-11-12---9-12-----12-11-12--11-----------------------|
      |--9------------------9-----------------------14---12---------------|
      |---------------------------------------------------------14--------|
      |-------------------------------------------------------------------|

      |--------10----13---12---10-12-13-----10--13--12--10--13--12--10----|
      |---10-----------------------------10-------------------------------|
      |-------------------------------------------------------------------|
      |-------------------------------------------------------------------|
      |-------------------------------------------------------------------|
      |-------------------------------------------------------------------|

      |--------10----13---12---10-12-13-----10--13--15--13--12--10--------|
      |---10-----------------------------10-------------------------------|
      |-------------------------------------------------------------------|
      |-------------------------------------------------------------------|
      |-------------------------------------------------------------------|
      |-------------------------------------------------------------------|


      |--------10----13---12---10-12-13-----10--13--12--10--13--12--10----|
      |---10-----------------------------10-------------------------------|
      |-------------------------------------------------------------------|
      |-------------------------------------------------------------------|
      |-------------------------------------------------------------------|
      |-------------------------------------------------------------------|

      |-----10----13---12---10-12-13-----10-13-15-13-12-13-12-------------|
      |-10----------------------------10----------------------15---13-----|
      |----------------------------------------------------------------14-|
      |-------------------------------------------------------------------|
      |-------------------------------------------------------------------|
      |-------------------------------------------------------------------|
Comments