Megadeth - Reckoning Day Chords & Tabs

 

Reckoning Day Chords & Tabs

Megadeth Chords & Tabs

Version: 2 Type: Tab 0 ratings
1 star 2 stars 3 stars 4 stars 5 stars
comments

Reckoning Day Tab

#----------------------------------PLEASE NOTE---------------------------------#
#This file is the author's own work and represents their interpretation of the #
#song. You may only use this file for private study, scholarship, or research. #
#------------------------------------------------------------------------------##
>From: L.Metcalfe@cm.cf.ac.uk (L Metcalfe)

____   ____                                                         ___   ____
 |Y\   /Y| ________ ________            ______   ________ _________ |YI   |Y|
 ||\\ //|| |>----<| |>----<|     /\     |>---<\  |>----<| |\-----/| |||   |||
 ||\\Y//|| ||T___\! ||T~~~\!    //\\    ||T~~\\\ ||T___\! |/~TYT~\| ||l___|||
 |||\Y/||| ||<-<]   |||  ___   ///\\\   |||  ||| ||<-<]      |||    ||<--->||
 ||| Y ||| ||l_____ ||l__|Y|  //<==>\\  ||l__/// ||l_____    |||MAT |||~~~|||
 |||   ||| |^----<| |^--->|| ///~~~~\\\ |^---[ Tab from: http://www.guitartabs.cc/tabs/m/megadeth/reckoning_day_tab_ver_2.html ]
Chorus :
--------
                                                              Play 3
||--------------------------------|--------------------------------||
||--------------------------------|--------------------------------||
||--------------------------------|7-------------------------------||
||7---------------10--------------|7-------------------------------||
||7-----------5h7-10----------5h7-|5-----------5h7-8-------7-------||
||5---------------8---------------|----------------8-------7-------||

(Guitar1)------------------------|--------------------------------|
|--------------------------------|--------------------------------|
|--------------------------------|7-------------------------------|
|7---------------10--------------|7-------------------------------|
|7-----------5h7-10----------5h7-|5-----------5h7-8-------7-------|
|5---------------8---------------|----------------8-------7-------|
|                                |                                |
(Guitar2)------------------------|--------------------------------|
|--------------------------------|--------------------------------|
|--------------------------------|--------------------------------|
|--------------------------------|--------------------------------|
|--------------------------------|--------------------5---3---2---|
|--------------------------------|--------------------------------|

What Acoustic Bit? :
--------------------

Wobbly bar effects throughout.

(Guitar1)------------------------|--------------------------------|
|--------------------------------|--------------------------------|
|------------------------------9\|7------------5---4--------------|
|7-------------9-10--------------|--------------------------------|
|------------------------------7\|5------------3---2--------------|
|5-------------7-8---------------|--------------------------------|
|                                |                                |
(Guitar2)------------------------|--------------------------------|
|--------------------------------|--------------------------------|
|--------------------------------|--------------------------------|
|--------------------------------|--------------------------------|
|--------------------------------|--------------------------------|
|--------------------------------|--------------------------------|

|--------------------------------|--------------------------------|
|--------------------------------|--------------------------------|
|7-----------5---4---------------|10---------------9--------------|
|--------------------------------|--------------------------------|
|5-----------3---2---------------|8----------------7--------------|
|--------------------------------|--------------------------------|
|                                |                                |
|--------------------------------|--------------------------------|
|--------------------------------|--------------------------------|
|--------------------------------|--------------------10--9---7---|
|--------------------------------|--------------------------------|
|--------------------------------|--------------------------------|
|--------------------------------|--------------------------------|

|--------------------------------|--------------------------------|
|--------------------------------|--------------------------------|
|----------------------------9-\-|7------------5---4--------------|
|7-------------9-10--------------|--------------------------------|
|----------------------------7-\-|5------------3---2--------------|
|5-------------7-8---------------|--------------------------------|
|                                |                                |
|--------------------------------|--------------------------------|
|--------------------------------|--------------------------------|
|----------------------------9--/|7---------5-7p5-4---------------|
|7-----------9-9/10--------------|--------------------------------|
|--------------------------------|--------------------------------|
|--------------------------------|--------------------------------|

|--------------------------------|--------------------------------|
|--------------------------------|--------------------------------|
|7-----------5---4---------------|10---------------9--------------|
|--------------------------------|--------------------------------|
|5-----------3---2---------------|8----------------7--------------|
|--------------------------------|--------------------------------|
|                                |                                |
|--------------------------------|--------------------------------|
|--------------------------------|--------------------------------|
|7---------5-7p5-4---------------|8b10----8b10----11b13---11b13---|
|--------------------------------|--------------------------------|
|--------------------------------|--------------------------------|
|--------------------------------|--------------------------------|

Chorus :
--------
                                                              Play 4x
||--------------------------------|--------------------------------||
||--------------------------------|--------------------------------||
||--------------------------------|7-------------------------------||
||7---------------10--------------|7-------------------------------||
||7-----------5h7-10----------5h7-|5-----------5h7-8-------7-------||
||5---------------8---------------|----------------8-------7-------||


Outro :
-------

Fade till end.
                                                              Play 8x
||--------------------------------|--------------------------------||
||--------------------------------|--------------------------------||
||--------------------------------|--------------------------------||
||--------7-----------6-------5---|--------------------------------||
||--------7-----------6-------5---|--------------------------------||
||0-0-0-0-----0-0-0-0-----0-0-----|----------------0-0-0-0-0-0-0-0-||
  . . . .     . . . .     . .                      . . . . . . . .

                            Play 16x    
||--------------------------------||
||--------------------------------||
||--------------------------------||
||--------7-----------6-------5---||
||--------7-----------6-------5---||
||0-0-0-0-----0-0-0-0-----0-0-----||
  . . . .     . . . .     . .

End.

Ok so maybe I have a rough idea of the acoustic bit.

Let Ring.
|--------8-5-------------8-5-----|--------8-7-5-----------8-7-----|
|------------5---------------5---|------5-------5-------------9-5-|
|------5-------5-------5-------5-|----7-----------------7---------|
|----7---------------5-----------|--7---------------6-9-----------|
|--7---------------7-------------|5---------------7---------------|
|5---------------8---------------|--------------------------------|

Don't know any more though ;{.

End.

--
+---------------------------------------------+----------------------------+
| Lee Metcalfe                                | E-Mail: scm2lm@cm.cf.ac.uk | 
| University of Wales, College of Cardiff     |    Irc: Bud3              / 
| Tied to machines that make me be -Metallica | XPilot: Bud3             /
+---------------------------------------------+-------------------------':)

Comments