Megadeth - Prince Of Darkness Chords & Tabs

 

Prince Of Darkness Chords & Tabs

Megadeth Chords & Tabs

Version: 2 Type: Tab 0 ratings
1 star 2 stars 3 stars 4 stars 5 stars
comments

Prince Of Darkness Tab

Band: Megadeth
Song: Prince of Darkness
Album: Risk(1999)
Transcriber: Robert Johnstone
Standard Tuning


Intro
|----------------------------------|
|----------------------------------|
|----------------------------------|
|-2-2---2---2---2---2---2---0-3----|
|-2-2---2---2---2---2---2---0-3----|
|-0-0---0---0---0---0---0-----1----|


|-------------------------------|
|-------------------------------|
|-------------------------------|
|-2-2---2---2---2---2-----------|
|-2-2---2---2---2---2--/5-------|
|-0-0---0---0---0---0-----6-5-3-|

|---------------------------------|
|-6-6---6-6-6---6-6-6---6-6-6---6-|
|-5-5---5-5-5---5-5-5---5-5-5---5-|
|-3-3---3-3-3---3-3-3---3-3-3---3-|
|---------------------------------|
[ Tab from: http://www.guitartabs.cc/tabs/m/megadeth/prince_of_darkness_tab_ver_2.html ]
Chorus
|----------------------------------|
|----------------------------------|
|---------------2-------3----------|
|-2------5------2-------3----------|
|-2------5------0-------1--0-1-2-0-|
|-0------3-------------------------|


|-----------------------------------------------|
|-----------------------------------------------|
|-----------------------------------------------|
|-2-2-2-2-2---2-2-2-2-2---2-2-2-2-2-----rest----| 3 times
|-2-2-2-2-2---2-2-2-2-2---2-2-2-2-2-------------|
|-0-0-0-0-0---0-0-0-0-0---0-0-0-0-0-------------|


|-------12-\-----|
|----12-----\----|
|-15---------\---|
|----------------| around the end they insert
|----------------| this fill into the rest
|----------------|


|-------------------------------------------|
|-------------------------------------------|
|-------------------------------------------|
|-2-2-2-2-2---2-2-2-2-2---2-5---4---3-------|
|-2-2-2-2-2---2-2-2-2-2---2-5---4---3-------|
|-0-0-0-0-0---0-0-0-0-0---0-3-0-2-0-1-------|

this is basically the whole song it goes in order and when you are finished the tabs
then just play around with them coz they are repeated again,you should know what I'm
talking about
Comments