Megadeth - Paranoid Chords & Tabs

 

Paranoid Chords & Tabs

Megadeth Chords & Tabs

Version: 1 Type: Tab 0 ratings
1 star 2 stars 3 stars 4 stars 5 stars
comments

Paranoid Tab

Paranoid : megadeth : hidden treasures

Intro
------------------------------------------------------|----------
------------------------------------------------------|----------
------------------------------------------------------|----------
----------------------------------12h14--------12h14--|--12------
----12h14---12h14---12h14--12h14--------12h14---------|-----14---
----12------12------12--------------------------------|----------

[ Tab from: http://www.guitartabs.cc/tabs/m/megadeth/paranoid_tab.html ]
Verse riff
---------------------------------------------------------------------------->
---------------------------------------------------------------------------->
---------------------------------------------------------------------------->
--14-14-14-14-14-14-14-14-14-14-14-14-14-14-14-14-12-12-12-12-12-12-12-12--->
--14-14-14-14-14-14-14-14-14-14-14-14-14-14-14-14-12-12-12-12-12-12-12-12--->
--12-12-12-12-12-12-12-12-12-12-12-12-12-12-12-12-10-10-10-10-10-10-10-10--->

play twice          play 2 - 3 times
------------------|------------------|-----------------------------
------------------|------------------|-----------------------------
--12--------------|------------------|-----------------------------
--12-12------14---|----14---10---12--|- 14-----14-------12-----14--
--10-12------14---|----14---10---12--|--14-----14-------12-----14--
-----10------12---|----12----8---10--|--12---- 12-------10-----12--

Play this during 'can you help me', then back to verse riff.
Comments