Megadeth - Loved To Deth Chords & Tabs

 

Loved To Deth Chords & Tabs

Megadeth Chords & Tabs

Version: 1 Type: Tab 0 ratings
1 star 2 stars 3 stars 4 stars 5 stars
comments

Loved To Deth Tab

   
         Title : Loved To Deth
        Artist : Megadeth
         Album : Killing Is My Business...And Business Is Good!
Transcribed by : Skywalker  -  skywalker@infoguitar.com


Legend
------

 h  = hammer-on
 p  = pull-off
 b  = bend
 r  = bend release
 /  = slide up/down
<5> = natural harmonic
[5] = artifical harmonic
 ~  = vibrato
 tr = trill



   SECTION A: GUITAR 1

Eb-||-------------------------------------------------------------------
Bb-||*------------------------------------------------------------------
Gb-||---------2p0---0h2-----{3}-3p2-0---0h3-------2p0---0h2-----{3}-3p2-
Db-||-------------2-------------------3---------------2-----------------
Ab-||*--0-0-0-----------0-0-----------------0-0-0-----------0-0---------
Eb-||-------------------------------------------------------------------
   *  Detune from standard by 1/4 step.

Eb---------|------------------------------------------------------------
Bb---------|----------------------------------------------------------4h
Gb-0---0h3-|-------2p0---0h2-----{3}-3p2-0---0h3-------2p0---0h2-3p-0---
Db---3-----|-----------2-------------------3---------------2------------
Ab---------|-0-0-0-----------0-0-----------------0-0-0------------------
Eb---------|------------------------------------------------------------



                      SECTION A: GUITAR 2

Eb|----------------||-------------------------------------------|------
Bb|---------------*||-------------------------------------------|------
Gb|--5-3p-0--------||-------------------------------------------|------
Db|---------3p-0---||---8\-7------8\--------8\-7------8\--------|-8\-7-
Ab|---------------*||---8\-7------8\--------8\-7------8\--------|-8\-7-
Eb|----------------||---6\-5------6\--------6\-5------6\--------|-6\-5-
               6x


                                            SECTION B: BOTH GUITARS

Eb----------------------------------------|-||--------------------------
Bb----------------------------------------|-||*-------------------------
Gb----------------------------------------|-||--------------------------
Db------8\--------8\-7------8\------------|-||---------------8----------
Ab------8\--------8\-7------8\------------|-||*--7------8----6---7----7-
Eb------6\--------6\-5------6\------------|-||---5-5--x-6-6------5--4-5-
                        *  Return w/ half measure then shadow Guitar 1. "Your body's empty now..."

Eb|----------------------------------|----------------------------------
Bb|----------------------------------|----------------------------------
Gb|----------------------------------|----------------------------------
Db|---8---------------8------------8-|---------------8------------8-----
Ab|---6---7------8----6---7----7---6-|--7------8-----6---7----7---6---7-
Eb|-5-----5-5--x-6-6------5--4-5-5---|--5-5--x-6-6-------5--4-5-5-----5-
               "As I hold you..."            "Now you're gone, I miss you..."


                                   SECTION C: BOTH GUITARS

Eb|-----------------------------||--------------------------------------
Bb|----------------------------*||--------------------------------------
Gb|-----------------------------||--------------------------------------
Db|------------8------------8---||--------------------------------------
Ab|------8-----6---7----7---6--*||----------------------4---------------
Eb|-5--x-6-6-------5--4-5-5-----||-0h-2--2-0-2-1-0-0--x-2--3-2-1-0-0h-2-
       "But I told you..."

Eb|----------------------------|---------------------------------------
Bb|----------------------------|---------------------------------------
Gb|----------------------------|---------------------------------------
Db|----------------------------|---------------------------------------
Ab|-----------------4----------|-----------------------4---------------
Eb|--2-0-2-1-0-0--x-2--3-2-1-0-|--0h-2--2-0-2-1-0-0--x-2--3-2-1-0-0h-2-
                                        "I loved you to Deth..."

Eb|-----------------------------|---------------------------------------
Bb|-----------------------------|---------------------------------------
Gb|-----------------------------|---------------------------------------
Db|-----------------------------|---------------8------------8----------
Ab|-----------------4-----------|---7------8----6---7----7---6---7------
Eb|--2-0-2-1-0-0--x-2--3-2-1-0--|---5-5--x-6-6------5--4-5-5-----5-5--x-
                                                                      " I loved you to Deth..."

Eb|---------------------|----------------------------------------------
Bb|---------------------|----------------------------------------------
Gb|---------------------|----------------------------------------------
Db|------8------------8-|----------------------------------------------
Ab|-8----6---7----7---6-|-----------------------4----------------------
Eb|-6-6------5--4-5-5---|--0h-2--2-0-2-1-0-0--x-2--3-2-1-0-0h-2--2-0-2-



                           SECTION D: BOTH GUITARS

Eb|----------------------|--------------------------------------------|-
Bb|----------------------|--------------------------------------------|-
Gb|----------------------|--------------------------------------------|-
Db|----------------------|---7-------6-------5-------4-------3----2---|-
Ab|----------4-----------|---7-------6-------5-------4-------3----2---|-
Eb|-1-0-0--x-2--3-2-1-0--|---5-------4-------3-------2-------1----0---|-
                             "I..."

Eb|--------------------------------------------|-------------------------
Bb|--------------------------------------------|-------------------------
Gb|--------------------------------------------|-------2p0---0h2-----{3}-
Db|--5-------4-------3-------2-------1----0----|-----------2-------------
Ab|--5-------4-------3-------2-------1----0----|-0-0-0-----------0-0-----
Eb|--3-------2-------1-------0-----------------|-------------------------
     "Loved you..."                              "To Deth..."

Eb-------------------------------------------------|--------------------
Bb----------------------------------4h-------------|--------------------
Gb-3p2-0---0h3-------2p0---0h2-3p-0----5-3p-0------|--------------------
Db-------3---------------2--------------------3p-0-|--7-------6-------5-
Ab-------------0-0-0-------------------------------|--7-------6-------5-
Eb-------------------------------------------------|--5-------4-------3-
                                                      "I..."

Eb|-------------------------|------------------------------------------
Bb|-------------------------|------------------------------------------
Gb|-------------------------|------------------------------------------
Db|-------4-------3----2----|------------------------------------------
Ab|-------4-------3----2----|------------------------------------------
Eb|-------2-------1----0----|------------------------------------------


Eb---------------------------------------------------------------------
Bb---------------------------------------------------------------------
Gb---------------------------------------------------------------------
Db--------------------------------------5-------4-------3-------2------
Ab--------------------------------------5-------4-------3-------2------
Eb--------------------------------------3-------2-------1-------0------
                                        "Loved you..."

Eb|-----------|--------------------------------------------------------
Bb|-----------|--------------------------------------------------------
Gb|-----------|-------2p0---0h2-----{3}-3p2-0---0h3-------2p0---0h2-3p-
Db|--1----0---|-----------2-------------------3---------------2--------
Ab|--1----0---|-0-0-0-----------0-0-----------------0-0-0--------------
Eb|-----------|--------------------------------------------------------
                "To Deth..."


                       LEAD 1: GUITAR 1

Eb|------------------|-----------------------------------------20-22b24-
Bb|---4h-------------|--20-------20-------20r---------17~--17-----------
Gb|-0----5-3p-0------|--19b21----19b21----19--p17-----17~--19-----------
Db|-------------3p-0-|----------------------------19--------------------
Ab|------------------|--------------------------------------------------
Eb|------------------|--------------------------------------------------


Eb|--22b24---22b24---22b24--22--22b24--22--22b24-|-r-20-23-20----20----
Bb|----------------------------------------------|------------22----22-
Gb|----------------------------------------------|---------------------
Db|----------------------------------------------|---------------------
Ab|----------------------------------------------|---------------------
Eb|----------------------------------------------|---------------------


Eb---------------------------------------------------------------------
Bb-22-20b----20b--22-20b----20b----------------17-19-17-19-20-19-17----
Gb--------21-------------21-----21-20-19-17-19----------------------19-
Db---------------------------------------------------------------------
Ab---------------------------------------------------------------------
Eb---------------------------------------------------------------------


Eb|--------------------------|--------------r-b1-------------------------
Bb|--------------------------|-------------------------------------------
Gb|-19b20--19-17-19-20-19-17-|-19-17-----------------------------r-------
Db|--------------------------|-------19b20----------10-10-12b13----13b14-
Ab|--------------------------|-------------------------------------------
Eb|--------------------------|--------------------\----------------------


Eb|---------------------------------------------------------------17-15-
Bb|-----------------------------------------------13-15-13-15b17--------
Gb|--r------------r--------r-------------12-13-14-----------------------
Db|---14b--17b19----17b19---p16-17-16-15--------------------------------
Ab|---------------------------------------------------------------------
Eb|---------------------------------------------------------------------


Eb|-------|----------12-15-12-15b17--12-15-12-15-12-15b17--17-20-17-20-
Bb|-15b17-|-13-15-17---------------------------------------------------
Gb|-------|------------------------------------------------------------
Db|-------|------------------------------------------------------------
Ab|-------|------------------------------------------------------------
Eb|-------|------------------------------------------------------------


Eb|-20-23--20-17-17-17-23-20-17-20-17-22-20-17-17-17--|-----------17-----
Bb|---------------------------------------------------|-20--17-20-----20p
Gb|---------------------------------------------------|------------------
Db|---------------------------------------------------|------------------
Ab|---------------------------------------------------|------------------
Eb|---------------------------------------------------|------------------


Eb|--------------------------------------------------------24b26-----24b26-
Bb|-17-18--20p17-------------18b20--18p17-15-------15/---------------------
Gb|--------------17-18-19-20-----------------17-16-------------------------
Db|------------------------------------------------------------------------
Ab|------------------------------------------------------------------------
Eb|------------------------------------------------------------------------


Eb|---|--24b26------24b26---24b26---24b26---24b26---24b26---24b26---24b26-
Bb|---|-------------------------------------------------------------------
Gb|---|-------------------------------------------------------------------
Db|---|-------------------------------------------------------------------
Ab|---|-------------------------------------------------------------------
Eb|---|-------------------------------------------------------------------


Eb|--24b26--r--------|-22-24-22-24-22----------------22----------------
Bb|------------------|----------------24-23-24-23-24----24-23-22-23-24-
Gb|------------------|-------------------------------------------------
Db|------------------|-------------------------------------------------
Ab|------------------|-------------------------------------------------
Eb|------------------|-------------------------------------------------



                      *  Pull string off side of fretboard and pull down against pickup to get pitch of 30th fret.
[ Tab from: http://www.guitartabs.cc/tabs/m/megadeth/loved_to_deth_tab.html ]
Eb|-22-24--/----------x----x---x---x--x-|-21p19-----22p21----21-----22p
Bb|-------x-x-x-x-x-x-------------------|-------22--------22----22-----
Gb|-------------------------------------|------------------------------
Db|-------------------------------------|------------------------------
Ab|-------------------------------------|------------------------------
Eb|-------------------------------------|------------------------------


Eb|-21----21----22p21----21--------22p20----20----20-22p20----20----20-
Bb|----22----22-------22----22-22--------22----22----------22----22----
Gb|--------------------------------------------------------------------
Db|--------------------------------------------------------------------
Ab|--------------------------------------------------------------------
Eb|--------------------------------------------------------------------



                                                                      * Pull string off fretboard again to achieve 27th fret bend effect.

Eb-22p20----|-20----20-22p20-------20-22-24---24---24----r---0-0-0-0--xb2-
Bb-------22-|----22----------22-24----------------------------------------
Gb----------|-------------------------------------------------------------
Db----------|-------------------------------------------------------------
Ab----------|-------------------------------------------------------------
Eb----------|-------------------------------------------------------------


Eb|---xb2---xb2---r-|--/-12--8-------------------------------------------
Bb|-----------------|-------------------------------8-10-8-10h11-10-8h10-
Gb|-----------------|-----------------------7-9-7-9----------------------
Db|-----------------|-----------7-9-10-9-10------------------------------
Ab|-----------------|----------------------------------------------------
Eb|-----------------|----------------------------------------------------


Eb|-------------------------11-12-------|----11-12-14-12-14b16--r11-12-
Bb|-8-6h8-6-----10-13-10-13-------13-12-|-13---------------------------
Gb|--------/-12-------------------------|------------------------------
Db|-------------------------------------|------------------------------
Ab|-------------------------------------|------------------------------
Eb|-------------------------------------|------------------------------


Eb|--------r------------------------------------------------------------
Bb|-15b16---13-15-20-------20------20--r---------20---------------------
Gb|---------------19b21----19b21---19---19-17----17b19--r---17-19-17----
Db|-------------------------------------------19---------19----------19-
Ab|---------------------------------------------------------------------
Eb|---------------------------------------------------------------------


Eb|----------------|-----------------------22-20-17-17----------17-------
Bb|----------------|-----------------------------------20-17-20----20-17-
Gb|-17-------------|-----------------------------------------------------
Db|----19p18-17----|-17-17-----------------------------------------------
Ab|-------------19-|-------19-18-17--------------------------------------
Eb|----------------|----------------17/-\--------------------------------


Eb|-------------------------------------------------------|-------------
Bb|-20-17----17-------------------------20-17-------------|-------------
Gb|-------19----19-17----------17-19-20-------20-19-17-19-|-20-19-17----
Db|-------------------------------------------------------|----------19-
Ab|-------------------19-17-------------------------------|-------------
Eb|-------------------------20----------------------------|-------------


Eb|---------------------------------------------------------------------
Bb|-------------------------x-20------20-20-20-20-20-20-20-20--20-20-20-
Gb|-------------------------x-19b21---19-19-19-19-19-19-19-19--19-19-19-
Db|-18-17----17-18-19-------x-------------------------------------------
Ab|-------19----------17h19---------------------------------------------
Eb|---------------------------------------------------------------------


Eb|--------------------------|-----------------------------------------
Bb|-20-20-20-20-20--20-20-20-|-20-20-20-20-20--20-20-20-20-20-20-20-20-
Gb|-19-19-19-19-19--19-19-19-|-19-19-19-19-19--19-19-19-19-19-19-19-19-
Db|--------------------------|-----------------------------------------
Ab|--------------------------|-----------------------------------------
Eb|--------------------------|-----------------------------------------



                                   LEAD 1 RHYTHM: GUITAR 2

Eb|------------------------------|-||----------------------------------
Bb|--20r--\-19--\----------------|-||*---------------------------------
Gb|--19---\-18--\----------------|-||----------------------------------
Db|------------------------------|-||---------------8------------8-----
Ab|------------------------------|-||*--7------8----6---7----7---6---7-
Eb|------------------------------|-||---5-5--x-6-6------5--4-5-5-----5-


Eb|--------------------------|-----------------------------------------
Bb|--------------------------|-----------------------------------------
Gb|--------------------------|-----------------------------------------
Db|-----------8------------8-|---------------8------------8------------
Ab|------8----6---7----7---6-|--7------8-----6---7----7---6---7------8-
Eb|-5--x-6-6------5--4-5-5---|--5-5--x-6-6-------5--4-5-5-----5-5--x-6-


Eb|----------------------||---------------------------------------------
Bb|---------------------*||---------------------------------------------
Gb|----------------------||---------------------------------------------
Db|-----8------------8---||---------------------------------------------
Ab|-----6---7----7---6--*||----------------------4----------------------
Eb|-6-------5--4-5-5-----||--0h-2-2-0-2-1-0-0--x-2--3-2-1-0--0h-2-2-0-2-


Eb|---------------------|----------------------------------------------
Bb|---------------------|----------------------------------------------
Gb|---------------------|----------------------------------------------
Db|---------------------|----------------------------------------------
Ab|----------4----------|-----------------------4----------------------
Eb|-1-0-0--x-2--3-2-1-0-|---0h-2-2-0-2-1-0-0--x-2--3-2-1-0--0h-2-2-0-2-


Eb|----------------------|----------------------------------------------
Bb|----------------------|----------------------------------------------
Gb|----------------------|----------------------------------------------
Db|----------------------|---------------8------------8---------------8-
Ab|----------4-----------|---7------8----6---7----7---6---7------8----6-
Eb|-1-0-0--x-2--3-2-1-0--|---5-5--x-6-6------5--4-5-5-----5-5--x-6-6----


Eb--------------|-------------------------------------------------------
Bb--------------|-------------------------------------------------------
Gb--------------|-------------------------------------------------------
Db------------8-|-------------------------------------------------------
Ab---7----7---6-|-----------------------4-------------------------------
Eb---5--4-5-5---|--0h-2--2-0-2-1-0-0--x-2--3-2-1-0-0h-2--2-0-2-1-0-0--x-


Eb|-------------|-------------------------------------------|----------
Bb|-------------|-------------------------------------------|----------
Gb|-------------|-------------------------------------------|----------
Db|-------------|--7-------6-------5-------4-------3----2---|--5-------
Ab|-4-----------|--7-------6-------5-------4-------3----2---|--5-------
Eb|-2--3-2-1-0--|--5-------4-------3-------2-------1----0---|--3-------


Eb|------------------------------------|-------------------------------
Bb|------------------------------------|-------------------------------
Gb|------------------------------------|-------------------------------
Db|-4-------3-------2-------1----0-----|---------------8------------8--
Ab|-4-------3-------2-------1----0-----|---7------8----6---7----7---6--
Eb|-2-------1-------0------------------|---5-5--x-6-6------5--4-5-5----


Eb-----------------------------|---------------------------------------
Bb-----------------------------|---------------------------------------
Gb-----------------------------|---------------------------------------
Db--------------8------------8-|--7-------6-------5-------4-------3----
Ab--7------8----6---7----7---6-|--7-------6-------5-------4-------3----
Eb--5-5--x-6-6------5--4-5-5---|--5-------4-------3-------2-------1----


Eb|-------|-------------------------------------------|----------------
Bb|-------|-------------------------------------------|----------------
Gb|-------|-------------------------------------------|--------2p0---0h
Db|-2-----|--5-------4-------3-------2-------1----0---|------------2---
Ab|-2-----|--5-------4-------3-------2-------1----0---|--0-0-0---------
Eb|-0-----|--3-------2-------1-------0----------------|----------------



                                                               SECTION E: BOTH GUITARS

Eb-----------------------------------------------------------|-||-------
Bb--------------------------------------------4h-------------|-||*------
Gb-2-----{3}-3p2-0---0h3-------2p0---0h2-3p-0----5-3p-0------|-||-------
Db-----------------3---------------2--------------------3p-0-|-||-------
Ab---0-0-----------------0-0-0-------------------------------|-||*------
Eb-----------------------------------------------------------|-||---5-5-
                                                               *  Guitar 2 only on first two passages.

Eb|--------------------------------------------------------------|------
Bb|--------------------------------------------------------------|------
Gb|--------------------------------------------------------------|------
Db|---------------------------------------------------------9----|------
Ab|------------------------------------------4h5-4-5-4---4--7--8-|------
Eb|-5-5-6-6-5-5-5-3-3-3-5-5-6-6--5-5-5-5-6-6-----------6-------6-|--5-5-
                                         "And now I'm down below..."

Eb|------------------------------------------------------------------||-
Bb|-----------------------------------------------------------------*||-
Gb|------------------------------------------------------------------||-
Db|----------------------------------------------------------9-------||-
Ab|-------------------------------------------4h5-4-5-4---4--7---8--*||-
Eb|-5-5-6-6-5-5-5--3-3-3-5-5-6-6--5-5-5-5-6-6-----------6--------6---||-
                                      "What do I see..."         4x

Eb-||------------------------------------------------------|------------
Bb-||*-----------------------------------------------------|------------
Gb-||------------------------------------------------------|------------
Db-||---7----8--7---5---7--8---7----8-----------------9----|--7----8--7-
Ab-||*--7----8--7---5---7--8---7----8--4h5-4-5-4---4--7--8-|--7----8--7-
Eb-||---5----6--5---3---5--6---5----6------------6-------6-|--5----6--5-
           "And now you're coming back, baby take me, please..."" "I really think I would, if you weren't suck a sleaze..."


                                                    END: BOTH GUITARS

Eb|----------------------------------------------||---------------------
Bb|---------------------------------------------*||---------------------
Gb|----------------------------------------------||---------------------
Db|----5---7--8---7----8-----------------9-------||---7--x-8--x-10--x---
Ab|----5---7--8---7----8--4h5-4-5-4---4--7---8--*||---7--x-8--x-10--x-6p
Eb|----3---5--6---5----6------------6--------6---||---5----6-----8------


Eb|----------------------------------------------|----------------------
Bb|----------------------------------------------|----------------------
Gb|----------------------------------------------|----------------------
Db|---------------7--x-8--x-10--x----------------|--7--x-8--x-10--x-----
Ab|-5---6p5-------7--x-8--x-10--x-6p5---6p5------|--7--x-8--x-10--x-6p5-
Eb|---8-----8-6---5----6-----8--------8-----8-6--|--5----6-----8--------


Eb|---------------------------------------------|----------------------
Bb|---------------------------------------------|----------------------
Gb|---------------------------------------------|----------------------
Db|-------------7--x-8--x-10--x-----------------|---7------------------
Ab|---6p5-------7--x-8--x-10--x-6p5---6p5-------|---7------------------
Eb|-8-----8-6---5----6-----8--------8-----8-6---|---5------------------


Eb|---------------------|----------------------------------------*|-
Bb|---------------------|----------------------------------------*|-
Gb|---------------------|----------------------------------------*|-
Db|--------(7)----------|----------8------------------7\---------*|-
Ab|--------(7)----------|----------8------------------7\---------*|-
Eb|--------(5)----------|----------6------------------5\---------*|-
                             "I loved you to Deth..."
Comments