Megadeth - Looking Down The Cross Chords & Tabs

 

Looking Down The Cross Chords & Tabs

Megadeth Chords & Tabs

Version: 3 Type: Tab 0 ratings
1 star 2 stars 3 stars 4 stars 5 stars
comments

Looking Down The Cross Tab

   
Artist: Megadeth 
Album: Killing is my business... and business is good!
Song: Looking down the cross

Legend
------

 h  = hammer-on
 p  = pull-off
 b  = bend
 r  = bend release
 /  = slide up/down
<5> = natural harmonic
[5] = artifical harmonic
 ~  = vibrato
 tr = trill



    INTRO: GUITAR 1 (Tune down 1/4 step from normal)

Eb|--------------------------------------------------------------------
Bb|---0----------------------------------------------------------------
Gb|------24p(0)---24p(0)---24p(0)---24p(0)----24p(0)---24p(0)---24p(0)-
Db|---9------------------------------------8---------------------------
Ab|--------------------------------------------------------------------
Eb|----------------------------------------6---------------------------
      * Play finger style w/ tap harmonics


Eb|----------|---------------------------------------------------------
Bb|----------|---------------------------------------------------------
Gb|---24p(0)-|----24p(0)---24p(0)---24p(0)---24p(0)----24p(0)---24p(0)-
Db|----------|-9------------------------------------8------------------
Ab|----------|---------------------------------------------------------
Eb|----------|-7------------------------------------6------------------



Eb|--------------------|------------------------------------------------
Bb|--------------------|------------------------------------------------
Gb|---24p(0)---24p(0)--|-------24p(0)---24p(0)---24p(0)---24p(0)-----24p
Db|--------------------|---12------------------------------------11-----
Ab|--------------------|------------------------------------------------
Eb|--------------------|---10-------------------------------------9-----





Eb|--------------------------------|-----------------------------------
Bb|--------------------------------|-----------------------------------
Gb|-(0)---24p(0)---24p(0)---24p(0)-|-----24p(0)---24p(0)---24p(0)---24p
Db|--------------------------------|-12--------------------------------
Ab|--------------------------------|-----------------------------------
Eb|--------------------------------|-10--------------------------------



Eb|--------------------------------------------|-----------------------
Bb|--------------------------------------------|-----------------------
Gb|-(0)-----24p(0)---24p(0)---24p(0)---24p(0)--|------24p(0)---24p(0)--
Db|-----11-------------------------------------|---9-------------------
Ab|--------------------------------------------|-----------------------
Eb|------9-------------------------------------|---7-------------------



Eb-------------------------------------------------------|-------------
Bb-------------------------------------------------------|-------------
Gb--24p(0)---24p(0)----24p(0)---24p(0)---24p(0)---24p(0)-|----24p(0)---
Db------------------8------------------------------------|-9-----------
Ab-------------------------------------------------------|-------------
Eb------------------6------------------------------------|-7-----------



Eb|----------------------------------------------------------------|---
Bb|----------------------------------------------------------------|---
Gb|-24p(0)---24p(0)---24p(0)----24p(0)---24p(0)---24p(0)---24p(0)--|---
Db|--------------------------8-------------------------------------|---
Ab|----------------------------------------------------------------|---
Eb|--------------------------6-------------------------------------|---



Eb|--------------------------------------------------------------------
Bb|--------------------------------------------------------------------
Gb|-----24p(0)---24p(0)---24p(0)---24p(0)-----24p(0)---24p(0)---24p(0)-
Db|-12------------------------------------11---------------------------
Ab|--------------------------------------------------------------------
Eb|-10-------------------------------------9---------------------------





Eb|----------|-----------------------------------------------------------
Bb|----------|-----------------------------------------------------------
Gb|---24p(0)-|-----24p(0)---24p(0)---24p(0)---24p(0)-----24p(0)---24p(0)-
Db|----------|-12------------------------------------11------------------
Ab|----------|-----------------------------------------------------------
Eb|----------|-10-------------------------------------9------------------



                           INTRO GUITAR 2

Eb|----------------12h15-|-||------------------------------------------
Bb|----------------------|-||*-----------------------------------------
Gb|---24p(0)---24p(0)----|-||------------------------------------------
Db|----------------------|-||------------------------------------------
Ab|----------------------|-||*--2--------------------1-----------------
Eb|----------------------|-||------3----3----3----3-----3----3----3----





Eb----|--------------------------------------------|-------------------
Bb----|--------------------------------------------|-------------------
Gb----|--------------------------------------------|-------------------
Db----|--------------------------------------------|-------------------
Ab----|-2--------------------1---------------------|---5---------------
Eb-3--|----3----3----3----3-----3----3----3----3---|------3----3----3--





Eb---------------------------|------------------------------------------
Bb---------------------------|------------------------------------------
Gb---------------------------|------------------------------------------
Db---------------------------|------------------------------------------
Ab------4--------------------|-5--------------------4-------------------
Eb---3-----3----3----3----3--|----3----3----3----3-----3----3----3----3-
                                                       *  This riff through 
							first passage of LEAD 1


         LEAD 1: GUITAR 1

Eb----||-||---19p15-12--19p15-12--14p10-12--19p15-12--19p15-12--14p10-12-
Bb---*||-||*-------------------------------------------------------------
Gb----||-||--------------------------------------------------------------
Db----||-||--------------------------------------------------------------
Ab---*||-||*-------------------------------------------------------------
Eb----||-||--------------------------------------------------------------



Eb--19p15-12--14p10-12--|--18p15-12--18p15-12--14p10-12--18p15-12--18p15-
Bb----------------------|------------------------------------------------
Gb----------------------|------------------------------------------------
Db----------------------|------------------------------------------------
Ab----------------------|------------------------------------------------
Eb----------------------|------------------------------------------------



Eb|-12--14p10-12--18p15-12--14p10-12---||-||---22p18-15--22p18-15--17p14-
Bb|-----------------------------------*||-||*----------------------------
Gb|------------------------------------||-||-----------------------------
Db|------------------------------------||-||-----------------------------
Ab|-----------------------------------*||-||*----------------------------
Eb|------------------------------------||-||-----------------------------



Eb|-----22p18-15--22p18-15--17p14-----22p18-15--17p14-----|--21p18-15--
Bb|-16----------------------------16------------------16--|------------
Gb|-------------------------------------------------------|------------
Db|-------------------------------------------------------|------------
Ab|-------------------------------------------------------|------------
Eb|-------------------------------------------------------|------------



Eb|-21p18-15--17p14-----21p18-15--21p18-15--17p14-----21p18-15--17p14----
Bb|-----------------16----------------------------16------------------16-
Gb|----------------------------------------------------------------------
Db|----------------------------------------------------------------------
Ab|----------------------------------------------------------------------
Eb|----------------------------------------------------------------------


        LEAD 1 RHYTHM: GUITAR 2 (on gtr. 1 repeat.)

Eb---||-||---------------------------------------|----------------------
Bb--*||-||*--------------------------------------|----------------------
Gb---||-||---------------------------------------|----------------------
Db---||-||---9-----------------(9)---------------|--8------------------\
Ab--*||-||*--9-----------------(9)---------------|--8------------------\
Eb---||-||---7-----------------(7)---------------|--6------------------\



Eb---------------|---------------------------------------|-------------
Bb---------------|---------------------------------------|-------------
Gb---------------|---------------------------------------|-------------
Db---------------|---9-----------------(9)---------------|--8----------
Ab---------------|---9-----------------(9)---------------|--8----------
Eb---------------|---7-----------------(7)---------------|--6----------



Eb------------------------|-----------------------------------------|--
Bb------------------------|-----------------------------------------|--
Gb------------------------|-----------------------------------------|--
Db---------\--------------|---12-----------------(12)---------------|--
Ab---------\--------------|---12-----------------(12)---------------|--
Eb---------\--------------|---10-----------------(10)---------------|--



Eb------------------------------------|--------------------------------
Bb------------------------------------|--------------------------------
Gb------------------------------------|--------------------------------
Db-11------------------\--------------|---12-----------------(12)------
Ab-11------------------\--------------|---12-----------------(12)------
Eb--9------------------\--------------|---10-----------------(10)------


                                                      SECTION A: BOTH GUITARS

Eb----------|--------------------------------------||------------------
Bb----------|-------------------------------------*||------------------
Gb----------|--------------------------------------||------------------
Db----------|--11------------------\---------------||---9--------------
Ab----------|--11------------------\--------------*||---9--------------
Eb----------|---9------------------\---------------||---7--------------
                                                        "Now before they take me..."


Eb----------------------|-------------------------------------|--------
Bb----------------------|-------------------------------------|--------
Gb----------------------|-------------------------------------|--------
Db----(9)---------------|--8---8---------------\--------------|---9----
Ab----(9)---------------|--8---8---------------\--------------|---9----
Eb----(7)---------------|--6---6---------------\--------------|---7----
                           "...and my blessed life"               "Now you'll know why death..."


Eb--------------------------------|------------------------------------
Bb--------------------------------|------------------------------------
Gb--------------------------------|------------------------------------
Db--------------(9)---------------|--8---8---------------\-------------
Ab--------------(9)---------------|--8---8---------------\-------------
Eb--------------(7)---------------|--6---6---------------\-------------
                                     "...was summoned here tonight"


Eb--|---------------------------------------|--------------------------
Bb--|---------------------------------------|--------------------------
Gb--|---7-----------------(7)---------------|--6---6---------------\---
Db--|---7-----------------(7)---------------|--6---6---------------\---
Ab--|---5-----------------(5)---------------|--4---4---------------\---
Eb--|---------------------------------------|--------------------------
        "I recall my perils..."                "...they kill me in pride"


Eb------------|---------------------------------------|----------------
Bb------------|---------------------------------------|----------------
Gb------------|---7-----------------(7)---------------|--7/--9-----7---
Db------------|---7-----------------(7)---------------|--7/--9-----7---
Ab------------|---5-----------------(5)---------------|--5/--7-----5---
Eb------------|---------------------------------------|----------------
                  "No, I can't run away..."              "...there's no place to hide"


                               SECTION B: GUITAR 1

Eb---------------------------|------------------------------------------
Bb---------------------------|------------------------------------------
Gb---6-----\-----------------|---2----x--x--x--4--x--x--5----x--x--x--6-
Db---6-----\-------9---9\--5-|---2----x--x--x--4--x--x--5----x--x--x--6-
Ab---4-----\-------9---9\--5-|---0----x--x--x--2--x--x--3----x--x--x--4-
Eb-----------------7---7\--3-|------------------------------------------
                               *  Guitar 2 plays rhythm stops


Eb|--------|-----------------------------------------------|-----------
Bb|--------|--------------------------6----x--x--8----x--x-|---10\-----
Gb|--x--x--|-7----x--x--x--9----x--x--5----x--x--7----x--x-|----9\---x-
Db|--x--x--|-7----x--x--x--9----x--x--3----x--x--5----x--x-|----7\---x-
Ab|--x--x--|-5----x--x--x--7----x--x-----------------------|----0\---x-
Eb|--------|-----------------------------------------------|-----------



Eb|----------------------------------------|----------------------------
Bb|----------------------------------------|--------------------------6-
Gb|--x--x--4--x--x--5----x--x--x--6--x--x--|-7----x--x--x--9----x--x--5-
Db|--x--x--4--x--x--5----x--x--x--6--x--x--|-7----x--x--x--9----x--x--3-
Ab|--x--x--2--x--x--3----x--x--x--4--x--x--|-5----x--x--x--7----x--x----
Eb|----------------------------------------|----------------------------


                          SECTION C: GUITAR 1

Eb|---------------------|-||--------------5---------------------5------
Bb|----x--x--3----------|-||*--5----------5----------5----------5---4~-
Gb|----x--x-----5--4--3-|-||---5----x--x--2----x--x--5----x--x--2---5~-
Db|----x--x-------------|-||---2----x--x-------x--x--2----x--x------3~-
Ab|---------------------|-||*------------------------------------------
Eb|---------------------|-||-------------------------------------------
                               "Though too much to live for..." "...I owe enough to die"


Eb|----|---------------------------------------------|--------------5--
Bb|----|-----------4------------4~--------3p-0--1h---|---5----------5--
Gb|----|-----x--x--5------x--x--5~-----2-----------2-|---5----x--x--2--
Db|----|-----x--x--3------x--x--3~-------------------|---2----x--x-----
Ab|----|---------------------------------------------|-----------------
Eb|----|---------------------------------------------|-----------------
                                                         "Ask not for salvation..."


Eb--------------------5---------|---------------------------------------
Bb---------5----------5---------|-----------7------------7~--------3p-0-
Gb---x--x--5----x--x--2---6~----|-----x--x--6------x--x--6~-----2-------
Db---x--x--2----x--x------4~----|-----x--x--4------x--x--4~-------------
Ab------------------------------|---------------------------------------
Eb------------------------------|---------------------------------------
                      "...my death shall mean their lives"


              SECTION C: GUITAR 2

Eb|--------||-||-------------------------------------------------|-----
Bb|--1h---*||-||*------------------------------------------------|-----
Gb|-----2--||-||---------------9----------------------9----8~----|-----
Db|--------||-||---10----------7----------10----------7---10~----|-----
Ab|-------*||-||*---7----0--0-------0--0---7----0--0-------------|-----
Eb|--------||-||-------------------------------------------------|-----



Eb-------------------------------------------|-------------------------
Bb-------------------------------------------|-------------------------
Gb--------8-------------8~--------7p-4--5----|---------------9---------
Db-------10------------10~---------------h-7-|---10----------7---------
Ab-0--0----------0--0----------0-------------|----7----0--0-------0--0-
Eb-------------------------------------------|-------------------------



Eb-------------------------|--------------------------------------------
Bb-------------------------|--------------------------------------------
Gb--------------9---11~----|-----------11------------11~--------7p-4--5-
Db--10----------7---11~----|-----------11------------11~---------------h
Ab---7----0--0-------------|-----0--0----------0--0----------0----------
Eb-------------------------|--------------------------------------------


           SECTION B EXTENSION: BOTH GUITARS

Eb|-----||-------------------------------------------------|-----------
Bb|----*||-------------------------------------------------|-----------
Gb|-----||---2----x--x--x--4--x--x--5----x--x--x--6--x--x--|-7----x--x-
Db|--7--||---2----x--x--x--4--x--x--5----x--x--x--6--x--x--|-7----x--x-
Ab|----*||---0----x--x--x--2--x--x--3----x--x--x--4--x--x--|-5----x--x-
Eb|-----||-------------------------------------------------|-----------



Eb|-------------------------------------|------------------------------
Bb|----------------6----x--x--8----x--x-|---10--\----------------------
Gb|--x--9----x--x--5----x--x--7----x--x-|----9--\--x--x--x--4--x--x--5-
Db|--x--9----x--x--3----x--x--5----x--x-|----7--\--x--x--x--4--x--x--5-
Ab|--x--7----x--x-----------------------|----0--\--x--x--x--2--x--x--3-
Eb|-------------------------------------|------------------------------
        "Beckoning you in..."


Eb|----------------------|----------------------------------------------
Bb|----------------------|--------------------------6----x--x--3--------
Gb|----x--x--x--6--x--x--|-7----x--x--x--9----x--x--5----x--x--7---5--4-
Db|----x--x--x--6--x--x--|-7----x--x--x--9----x--x--3----x--x-----10--9-
Ab|----x--x--x--4--x--x--|-5----x--x--x--7----x--x----------------------
Eb|----------------------|----------------------------------------------
                                                               * Gtr. 1 plays top notes


         SECTION D: GUITAR 1 Semi Harm.

Eb|----|---------------------------------------------|-----------------
Bb|----|---------------------------------------------|-----------------
Gb|--3-|---2~----2~-----4----5~-------2--5--4--2--0--|---------------2-
Db|--8-|---------------------------3-----------------|-3~----3---3-----
Ab|----|---------------------------------------------|-----------------
Eb|----|---------------------------------------------|-----------------



Eb-----------------------0------|---------------------------------------
Bb---0-------------------3/-5~--|------------------------------1--3-3-3p
Gb---2/-4~----------------------|-------------2---4----{5}~-------------
Db-----------0--0--2--0---------|---2-----------------------------------
Ab------------------------------|---0-----0-----------------------------
Eb------------------------------|---------------------------------------



Eb-----------|---------------------------------------------|-----------
Bb--1--0h-1--|-------------------------------1p0-----------|-----------
Gb-----------|--------------2---1~--------0------2--4p-2\--|-----------
Db-----------|-3~----3-----------------2-------------------|---2-------
Ab-----------|---------------------------------------------|---0-----0-
Eb-----------|---------------------------------------------|-----------


              Semi Harm.

Eb-------------------------------------|--------------------------------
Bb---------------------3-3-3-----------|-------------------0------------
Gb---2---4----5~----4---------5--4--3--|-2~------------2---2/-4~--------
Db-------------------------------------|-------3---3---------------0--0-
Ab-------------------------------------|--------------------------------
Eb-------------------------------------|--------------------------------



Eb--------0-------|-------------------------------------------------|---
Bb--------3/-5p-3-|------------------------------1--3-3-3p-1--0h-1--|---
Gb----------------|-------------2---4----{5}~-----------------------|---
Db--2--0----------|---2---------------------------------------------|-3~
Ab----------------|---0-----0---------------------------------------|---
Eb----------------|-------------------------------------------------|---


                                                SECTION D: GUITAR 2

Eb|-------------------------------------------|------------------------
Bb|------------------------------1-----0------|------------------------
Gb|-------------2---1~--------0-----2-----1---|----------------4----5~-
Db|-----3---3--------------2------------------|---7~-----\-------------
Ab|-------------------------------------------|------------------------
Eb|-------------------------------------------|------------------------



Eb|----------------------|---------------------------------------------
Bb|----------------------|-------------------0-------------------------
Gb|----------5--4--2--0--|---------------2---2b4------------------4h-5~
Db|----5--3--------------|-3~----3---3----------------0--0--2--0-------
Ab|----------------------|---------------------------------------------
Eb|----------------------|---------------------------------------------



Eb---|-------------------------------------------------|----------------
Bb---|------------------------------1--3-3-3p-1--0h-1--|----------------
Gb---|-------------2---4----{5}~-----------------------|--------------2-
Db---|-------------------------------------------------|----------------
Ab---|---0-----0---------------------------------------|-0-----0--------
Eb---|-------------------------------------------------|----------------



Eb------------------------------|--------------------------------------
Bb------------------------------|--------------------------------3--5--
Gb---1~-----5p4----5--4--5h-7---|-------------2---4----5~----4-5-------
Db--------------7---------------|--------------------------------------
Ab------------------------------|---0-----0----------------------------
Eb------------------------------|--------------------------------------



Eb----------|----------------------------------------------|-----------
Bb-3--------|------------------0---------------------------|-----------
Gb----5--4--|-2~-----------2---2b4------------------4h-5~--|-----------
Db----------|---------------------------0--0--2--0---------|-----------
Ab----------|-------0--------------------------------------|---0-----0-
Eb----------|----------------------------------------------|-----------


[ Tab from: http://www.guitartabs.cc/tabs/m/megadeth/looking_down_the_cross_tab_ver_3.html ]
Eb---------------------------------------|-----------------------------
Bb--------------------1--3-3-3p-1--0h-1--|-----------------------------
Gb---2---4----{5}~-----------------------|--------------2---1~-----5p4-
Db---------------------------------------|-----------------------------
Ab---------------------------------------|-0-----0---------------------
Eb---------------------------------------|-----------------------------


                     LEAD 2: GUITAR 1

Eb-----------------|-----------------------------------------12h-13-|-12-
Bb-----------------|------------------------------------------------|----
Gb----5-----5------|---9--7------------------------------14---------|----
Db-7-----7-----4---|---------10--9--7-------------------------------|----
Ab-----------------|------------------------------------------------|----
Eb-----------------|------------------------------------------------|----



Eb|---------------------------------------------------------------------
Bb|-------12p10----10-12~---10h12-13~--12h13-15-13h15-17-15h17-18-17h18-
Gb|-------------13------------------------------------------------------
Db|---------------------------------------------------------------------
Ab|---------------------------------------------------------------------
Eb|---------------------------------------------------------------------



Eb--------|---17--------17-------17-----17-----17-----17-----17-----17----
Bb-20/-21-|---20b22-----20b22----20b22--20b22--20b22--20b22--20b22--20b22-
Gb--------|---------------------------------------------------------------
Db--------|---------------------------------------------------------------
Ab--------|---------------------------------------------------------------
Eb--------|---------------------------------------------------------------



Eb--17-----17-----17-----17-----17-----17----|-------------------------
Bb--20b22--20b22--20b22--20b22--20b22--20b22-|-------------------------
Gb-------------------------------------------|-------------------------
Db-------------------------------------------|-------------------------
Ab-------------------------------------------|-------------------------
Eb-------------------------------------------|-------------------------



Eb--r------------------|-------------------------------------------------
Bb------(20)p-18-17-18-|---20p18-17-18p17-15-17p15-13-15p13-12-----------
Gb---------------------|----------------------------------------17p16-14-
Db---------------------|-------------------------------------------------
Ab---------------------|-------------------------------------------------
Eb---------------------|-------------------------------------------------



Eb-----------------------------------------------|-----------------------
Bb-----------------------------------------------|-----------------------
Gb-16p14-12-14p12-----12-------------------------|-----------------------
Db----------------15-----15-14-15-14-12-14p12----|--12-------------------
Ab--------------------------------------------15-|-----15-14-15-14-12-14-
Eb-----------------------------------------------|-----------------------


                                          LEAD 2 RHYTHM: GUITAR 2

Eb--------------------------------------|------------------------------
Bb--------------------------------------|--------------5----------5----
Gb--------------------------------------|---5----------2----------2----
Db-------------------\------0-----------|---2----0--0-------0--0-------
Ab-12----------------\------0-----------|------------------------------
Eb----15-14-12-13~----------------------|------------------------------
                      *  Pick slide


Eb-----------------|----------------------------------------------|-----
Bb-------5---------|-----------4------------4~--------------------|-----
Gb-------2---5~----|-----------5------------5~---------7p-4--5----|---5-
Db-0--0------3~----|-----0--0--3------0--0--3~---x--0---------h-7-|---2-
Ab-----------------|----------------------------------------------|-----
Eb-----------------|----------------------------------------------|-----



Eb|------------------------------------------|--------------------------
Bb|----------5----------5----------5---------|--------------------------
Gb|----------2----------2----------2---6~----|-----------6------------6~
Db|----0--0-------0--0-------0--0------4~----|-----0--0--4------0--0--4~
Ab|------------------------------------------|--------------------------
Eb|------------------------------------------|--------------------------




Eb|---------------------|----------------------------------------------
Bb|---------------------|--------------5----------5----------5---------
Gb|----------7p-4--5----|---5----------2----------2----------2---5~----
Db|----x--0---------h-7-|---2----0--0-------0--0-------0--0------3~----
Ab|---------------------|----------------------------------------------
Eb|---------------------|----------------------------------------------


                                                    SECTION B EXTENSION: BOTH GUITARS

Eb-|----------------------------------------------|--------------------
Bb-|-----------4------------4~--------------------|--------------------
Gb-|-----------5------------5~---------7p-4--5----|---2----x--x--x--4--
Db-|-----0--0--3------0--0--3~---x--0---------h-7-|---2----x--x--x--4--
Ab-|----------------------------------------------|---0----x--x--x--2--
Eb-|----------------------------------------------|--------------------
                                                                 "Down the walkways..."


Eb|------------------------------|-------------------------------------
Bb|------------------------------|--------------------------6----x--x--
Gb|-x--x--5----x--x--x--6--x--x--|-7----x--x--x--9----x--x--5----x--x--
Db|-x--x--5----x--x--x--6--x--x--|-7----x--x--x--9----x--x--3----x--x--
Ab|-x--x--3----x--x--x--4--x--x--|-5----x--x--x--7----x--x-------------
Eb|------------------------------|-------------------------------------
                                   "...through the bloodstained town"



Eb|-----------|---------------------------------------------------|----
Bb|-8----x--x-|---10--\-------------------------------------------|----
Gb|-7----x--x-|----9--\--x--x--x--4--x--x--5----x--x--x--6--x--x--|-7--
Db|-5----x--x-|----7--\--x--x--x--4--x--x--5----x--x--x--6--x--x--|-7--
Ab|-----------|----0--\--x--x--x--2--x--x--3----x--x--x--4--x--x--|-5--
Eb|-----------|---------------------------------------------------|----
                               "Looking down the cross..."          "...bleeding from the crown"


                                                   SECTION E: BOTH GUITARS

Eb|---------------------------------------------||---------------------
Bb|-----------------------6----x--x--8----x--x-*||---------------------
Gb|---x--x--x--9----x--x--5----x--x--7----x--x--||---------------------
Db|---x--x--x--9----x--x--3----x--x--5----x--x--||---------------------
Ab|---x--x--x--7----x--x-----------------------*||---------------------
Eb|---------------------------------------------||---------------------
                                                     "And now to you, this will come..." 
							"...a putrefying pestilence"


Eb|---------------|----------------------------------|-----------------
Bb|---------------|----------------------------------|-----------------
Gb|---------------|----------------------------------|---5-------------
Db|---------------|----------------------------------|---5-------------
Ab|---------------|----------------------------------|---3-------------
Eb|---------------|----------------------------------|-----------------
                    "More noxious than the serpent's breath..." 
			"...malevolently destined" "More corrupt than the malice..."


                                                                   *  Guitar 1 only on this part

Eb|----------------------|--------------------------------------|------
Bb|----------------------|--------------------------------------|------
Gb|----------------------|-5--------7---------------------------|------
Db|-----7-----\----------|-5--------7---------7-----\-----------|------
Ab|-----7-----\----------|-3--------5---------7-----\-----------|--0-0-
Eb|-----5-----\----------|--------------------5-----\-----------|------
        "...of Choronazon" "More disease than the wind..." 
				"...of the moonlight sun" "Putrefaction you have caused..."


Eb|--------------------------------------------------------------|------
Bb|--------------------------------------------------------------|------
Gb|--------------------------------------------------------------|------
Db|--------------------------------------------------------------|------
Ab|-0-0-0-0-0-0-0-0-0-0-0-0-0-0-0-0-0-0-0-0-0-0-0-0-0-0-0-0-0-0--|--0-0-
Eb|--------------------------------------------------------------|------
                                "...no need for confession"       "Now you wish you had a god..."


Eb|-------------------------------------------------------------|------
Bb|-------------------------------------------------------------|------
Gb|-------------------------------------------------------------|---5--
Db|-------------------------------------------------------------|---5--
Ab|-0-0-0-0-0-0-0-0-0-0-0-0-0-0-0-0-0-0-0-0-0-0-0-0-0-0-0-0-0-0-|---3--
Eb|-------------------------------------------------------------|------
                              "...to stop your demolition"     "Crushing the bones of the hundred folds..."


Eb|---------------------------------|----------------------------------
Bb|---------------------------------|----------------------------------
Gb|---------------------------------|-5--------7-----------------------
Db|----------------7-----\----------|-5--------7---------7-----\-------
Ab|----------------7-----\----------|-3--------5---------7-----\-------
Eb|----------------5-----\----------|--------------------5-----\-------
                   "...swinging the judgement hammer" "Man, woman, child, no one is safe..."
							 "...the heads of the dead are the banner"


          SECTION F: BOTH GUITARS

Eb|-----|-||--------------------------------------------------|---------
Bb|-----|-||*-------------------------------------------------|---------
Gb|-----|-||--------------------------------------------------|---------
Db|-----|-||--------7p-6-----5p-4-----2p-0--------------------|-------7p
Ab|-----|-||*--0----------7--------5--------3--3p-2--2p-0-----|--0------
Eb|-----|-||-----------------------------------------------3--|---------



Eb|------------------------------------------||-||----------------------
Bb|-----------------------------------------*||-||*---------------------
Gb|------------------------------------------||-||----------------------
Db|--6-----5p-4-----2p-0---------------------||-||--------7p-6-----5p-4-
Ab|-----7--------5--------3--3p-2--2p-0-----*||-||*--0----------7-------
Eb|--------------------------------------3---||-||----------------------



Eb|----------------------------|---------------------------------------
Bb|----------------------------|---------------------------------------
Gb|----------------------------|---------------------------------------
Db|----------7p-6-----5p-4-----|-------7p-6-----5p-4-----2p-0----------
Ab|--5--0----------7--------5--|--0----------7--------5--------3--3p-2-
Eb|----------------------------|---------------------------------------


                  SECTION F: BOTH GUITARS

Eb|------------||-----------------------------------------|------------
Bb|-----------*||-----------------------------------------|------------
Gb|------------||---2--------------4---5--------------6---|-7----------
Db|------------||---2-----------x--4---5-----------x--6---|-7--------x-
Ab|--2p-0-----*||---0-----------x--2---3-----------x--4---|-5--------x-
Eb|--------3---||-----------------------------------------|------------
                        "And this was all you got..." "...so don these broken wings" 
						"Sands of time run out..."


Eb|------------------------------|--------------------------------------
Bb|------6------------8----------|---10--\------------------------------
Gb|--9---5---------x--7-------x--|----9--\------------4---5-------------
Db|--9---3---------x--5-------x--|----7--\---------x--4---5-----------x-
Ab|--7---------------------------|----0--\---------x--2---3-----------x-
Eb|------------------------------|--------------------------------------
            "...bells of Hades ring"   "Is this a nightmare..." "...to unhallow thy name?"


                           * On repeat, gtr. 1 rides G string 2nd fret LEAD 3: GUITAR 1

Eb|------|------------------------------------------||-------------------
Bb|------|-----------------6------------8----------*||-------------------
Gb|--6---|-7-----------9---5---------x--7-------x---||-------------------
Db|--6---|-7--------x--9---3---------x--5-------x---||-------------------
Ab|--4---|-5--------x--7---------------------------*||----------12-14-15-
Eb|------|------------------------------------------||-12-14-15----------
              "Smell of brimstone..." "...dancing in the flames"


Eb----------------------------------------------15-17-19-22b24---22b24-
Bb-------------------------------------15-17-19------------------------
Gb----------------------------14-16-18---------------------------------
Db-12-14-16----------14-16-18------------------------------------------
Ab----------12-14-15---------------------------------------------------
Eb---------------------------------------------------------------------



Eb--22b24--22b24--r-|-22b24--r-20h22-20h22-20p19-------------------------
Bb------------------|----------------------------20h22-20h22-20p19-13h17-
Gb------------------|----------------------------------------------------
Db------------------|----------------------------------------------------
Ab------------------|----------------------------------------------------
Eb------------------|----------------------------------------------------



Eb----------------------------------------------|-----------------------
Bb-13h16-13h------------------------------------|-----------------------
Gb----------16-11h15-11h14-11h------------------|-----------------------
Db----------------------------15----------------|--------------------10-
Ab-------------------------------9h13-9h12-9----|--------12p10-12-14---p
Eb------------------------------------------h13-|--x/-\-----------------



Eb---------------------------------------------------------------------
Bb---------------------------------------------------------------------
Gb-------------10h12-14--12p10-12p10--------------------------12h14-12-
Db----10-12-14-----------------------14p12-10--------12h14-16----------
Ab-14-----------------------------------------14p12--------------------
Eb---------------------------------------------------------------------



Eb-|----------------------------------------------------------15h17-19/
Bb-|-------------------------------------------------15h17-19----------
Gb-|-------------------16h17-16-17h19-17-16-16h17-19-------------------
Db-|-16p14-12----------------------------------------------------------
Ab-|----------16p14-12-------------------------------------------------
Eb-|-------------------------------------------------------------------



Eb--22--22b24--22p20-17-22-20-17-|----------------17-17----------------
Bb-------------------------------|-15-17----17h20-------20-17-20-------
Gb-------------------------------|-------14----------------------19b20-
Db-------------------------------|-------------------------------------
Ab-------------------------------|-------------------------------------
Eb-------------------------------|-------------------------------------



Eb----------------------------------------------------------------------
Bb-----------17-19-17-19-20-19-17-19------------------------------------
Gb--17-19-19-------------------------19b20--r17-19-19b20--r17-19-17-----
Db-------------------------------------------------------------------19-
Ab----------------------------------------------------------------------
Eb----------------------------------------------------------------------



Eb-|--------------------------------------------------------------------
Bb-|--------------------------------------------------------------------
Gb-|-------17h19-17----17--------------------------------------12h14-12-
Db-|-17h19----------19----19\---------------13p12-10-12-13/-14----------
Ab-|--------------------------12-15-12-15-x-----------------------------
Eb-|--------------------------------------------------------------------



Eb----------------------------|-----------15b16---r-p13----------13--13h
Bb----------------------------|-13----13--15b16------13----13h15-15--13-
Gb----13h14-13-12-13p12-13-14-|----14-------------------14--------------
Db-14-------------------------|-----------------------------------------
Ab----------------------------|-----------------------------------------
Eb----------------------------|-----------------------------------------



Eb-----13h---------------------------13-15--17-----17-----|-17-----17----
Bb-15--13-15-15-15-13-15-15-13-15-17--------20b22--20b22--|-20b22--20b22-
Gb--------------------------------------------------------|--------------
Db--------------------------------------------------------|--------------
Ab--------------------------------------------------------|--------------
Eb--------------------------------------------------------|--------------



Eb--17--17-17--17-17--17-17--17-20b24----p17-17-17--------17-17--------
Bb--20-----20-----20-----20------------------------20b22--------20b22--
Gb---------------------------------------------------------------------
Db---------------------------------------------------------------------
Ab---------------------------------------------------------------------
Eb---------------------------------------------------------------------



Eb-17-------------|--17-17---------------------------------{15}----------
Bb----20p17-20b22-|--------20p17----17--------------------------17-18-17-
Gb----------------|--------------19----19p-17-19p17----17----------------
Db----------------|---------------------------------19-------------------
Ab----------------|------------------------------------------------------
Eb----------------|------------------------------------------------------



Eb----------------------------------------------|----------------------
Bb-16-15-14-15-16-17-16-14h15-14----------------|-14-15-16-17-16-15-17h
Gb-------------------------------16-15-14-13-14-|----------------------
Db----------------------------------------------|----------------------
Ab----------------------------------------------|----------------------
Eb----------------------------------------------|----------------------



Eb----------17-------15-------17----------------17-------20p17----------
Bb-20-17-20----20-17----17-15----20-17----17-20----20-17-------20p17----
Gb-------------------------------------20----------------------------19p
Db----------------------------------------------------------------------
Ab----------------------------------------------------------------------
Eb----------------------------------------------------------------------


            LEAD 3 RHYTHM: GUITAR 2

Eb--------|-||-----------------------------------------------|---------
Bb--------|-||*----------------------------------------------|---------
Gb-17-----|-||-----------------------------------------------|---------
Db----19\-|-||---7~------7--6~------6--5~------5-------------|--7~-----
Ab--------|-||*-------0----------0----------0-----5~---6--7--|-------0-
Eb--------|-||-----------------------------------------------|---------


                                             SECTION G: BOTH GUITARS

Eb|---------------------------------------||---------------------------
Bb|--------------------------------------*||---------------------------
Gb|---------------------------------------||---------------------------
Db|--7--6~------6--5~------5--------------||---7-------7--6-------6--5-
Ab|----------0----------0-----5~---6--7--*||---7-------7--6-------6--5-
Eb|---------------------------------------||---5----0--5--4----0--4--3-
                                               "Looking down the cross..."


Eb|---------------------|----------------------------------------------
Bb|---------------------|----------------------------------------------
Gb|---------------------|----------------------------------------------
Db|-------5--0----1--2--|--7-------7--6-------6--5-------5--0----1--2--
Ab|-------5--0----1--2--|--7-------7--6-------6--5-------5--0----1--2--
Eb|----0--3-------------|--5----0--5--4----0--4--3----0--3-------------
       "...speak no evil"  "I'm looking down the cross..." "...speak no evil"


Eb-|-----------------------------------------------|--------------------
Bb-|-----------------------------------------------|--------------------
Gb-|-----------------------------------------------|--------------------
Db-|---7-------7--6-------6--5-------5--0----1--2--|--7-------7--6------
Ab-|---7-------7--6-------6--5-------5--0----1--2--|--7-------7--6------
Eb-|---5----0--5--4----0--4--3----0--3-------------|--5----0--5--4----0-
       "Looking down the cross..." "...speak no evil" "I'm looking down the cross..."
                                END: BOTH GUITARS

Eb|---------------------------|----------------------------------------
Bb|---------------------------|----------------------------------------
Gb|---------------------------|---2-------------4--------5-------------
Db|--6--5-------5--7----5--4--|---2-------------4--------5-------------
Ab|--6--5-------5--5----3--2--|---0----0--0--0--2--0--0--3----0--0--0--
Eb|--4--3----0--3-------------|----------------------------------------
             "...speak no evil"


Eb|----------|-----------------------------------------------|---------
Bb|----------|---------------5----------6----------8---------|---10--\-
Gb|-7--------|-2-------------4----------5----------7---------|----9--\-
Db|-7--------|-2-------------2----------3----------5---------|----7--\-
Ab|-5--0--0--|-0----0--0--0-------0--0-------0--0-------0--0-|----0--\-
Eb|----------|-----------------------------------------------|---------



Eb|-------------------------------------------|-------------------------
Bb|-------------------------------------------|---------------5---------
Gb|-----------4--------5-------------7--------|-2-------------4---------
Db|-----------4--------5-------------7--------|-2-------------2---------
Ab|--0--0--0--2--0--0--3----0--0--0--5--0--0--|-0----0--0--0-------0--0-
Eb|-------------------------------------------|-------------------------



Eb|------------------------|--------------------------------------|------
Bb|--6----------3--1--0----|--------------------------------------|------
Gb|--5-------------------3-|---2-----2----------------------------|------
Db|--3---------------------|---2-----2-----3----------------------|--(3)-
Ab|-------0--0-------------|---0-----0-----3----------------------|--(3)-
Eb|------------------------|---------------1----------------------|--(1)-
Comments