Megadeth - Killing Is My Business And Business Is Good Chords & Tabs

 

Killing Is My Business And Business Is Good Chords & Tabs

Megadeth Chords & Tabs

Version: 1 Type: Tab 0 ratings
1 star 2 stars 3 stars 4 stars 5 stars
comments

Killing Is My Business And Business Is Good Tab

   
Megadeth
Killing is my Business (and business is good)
 
Gtr I (E A D G B E) - 'Dave Mustaine'
Gtr II (E A D G B E) - 'Chris Poland'
Gtr III (E A D G B E) - 'Pick Slide'

 Intro
  Q=120
  C#5
 4/4
  Gtrs I, II
|----------|------------|------------|--------|
|----------|------------|------------|--------|
|----------|------------|------------|--------|
|-6--------|-(6)--------|-(6)--------|-(6)----|
|-4--------|-(4)--------|-(4)--------|-(4)----|
|----------|------------|------------|--------|


  C#5   C5      B5                  C#N.C.
                                                PM------------|
|-------------|-----------------||-------------------------------|
|-------------|-----------------||o------------------------------|
|-------------|-----------------||----6--------------------------|
|-6\----5\----|-4\--------4-(4)-||--6---6-5-4-2------------------|
|-4\----3\----|-2\------0-2-(2)-||o-4-----------4-3-2------------|
|-------------|-----------------||--------------------4-3-2-1-0--|


  F#G5F#E5F#5    F#G5F#E5  B5      C#N.C.
                                               PM------------|
|--------------------------------|-----------------------------|
|--------------------------------|-----------------------------|
|--------------------------------|---6-------------------------|
|--------------------------4-(4)-|-6---6-5-4-2-----------------|
|-4S5S4-2-4--x-x-4S5S4-2-x-2-(2)-|-4-----------4-3-2-----------|
|-2S3S2-0-2--x-x-2S3S2-0-x-------|-------------------4-3-2-1-0-|


                                        Verse
                                     $
  F#G5F#E5F#5    F#G5F#E5F#E5            C#5N.C.              E5
|---------------------------------||-||-----------------------------|
|--------------------------------o||-||o----------------------------|
|---------------------------------||-||-----4-------4---------------|
|---------------------------------||-||--6----6-5-4---6-5-4---------|
|-4S5S4-2-4--x-x-4S5S4-2-4-2-(2)-o||-||o-4------------------x-2-(2)-|
|-2S3S2-0-2--x-x-2S3S2-0-2-0-(0)--||-||---------------------x-0-(0)-|


  C#5N.C.               E5
                ~~~~~~
                               3x
|------------------------------||
|-----------------------------o||
|---------------9-(9)----------||
|-6--9h11p9-----9-(9)----------||
|-4---------9-x-------x-2-(2)-o||
|-------------x-------x-0-(0)--||


  C#5N.C.              E5      G#5                 E5
                                  Gtr III          Gtr II
|----------------------------|-------------------------|
|----------------------------|-------------------------|
|----4-------4---------------|-------------------------|
|-6----6-5-4---6-5-4---------|-------------------------|
|-4------------------x-2-(2)-|-6-------------------2---|
|--------------------x-0-(0)-|-4--xSxSxSxSxSxSx\-x-0---|


 Bridge
  Q=174
  C#5              N.C.
  Gtr I
  PM-----------------------------|               PM--------|
|----------------------------------|-----------------------------|
|----------------------------------|-----------------------------|
|----------------------------------|-----------------------------|
|----------------------------------|-4h5p4p2-4p2-----------------|
|-4--4-4-4-7-7-4-4-----4-4-9-9-4-4-|-------------4-4-3-3-2-2-4---|
|------------------7-7-------------|-------------------------2---|
|
| Gtr II
|----------------------------------|-----------------------------|
|----------------------------------|-----------------------------|
|----------------------------------|-----------------------------|
|-6\-------------------------------|-----------------------------|
|-4\-------------------------------|-----------------------------|
|----------------------------------|-----------------------------|


                                                            F#5
  PM----------------------------|               PM--------|
|---------------------------------|-----------------------------|
|---------------------------------|-----------------------------|
|---------------------------------|-------------------------6---|
|---------------------------------|-4h5p4p2-4p2-------------4---|
|-4-4-4-4-7-7-4-4-----4-4-9-9-4-4-|-------------4-4-3-3-2-2-----|
|-----------------7-7-------------|-----------------------------|
|
|---------------------------------|-----------------------------|
|---------------------------------|-----------------------------|
|---------------------------------|-------------------------6---|
|---------------------------------|-------------------------4---|
|---------------------------------|-----------------------------|
|---------------------------------|-----------------------------|


    N.C.                                                      F#5
    Gtrs I, II
    PM----------------------------|               PM--------|
||----------------------------------|----------------------------|
||o---------------------------------|----------------------------|
||----------------------------------|----------------------------|
||----------------------------------|-4h5p4p2-4p2----------------|
||o-4-4-4-4-7-7-4-4-----4-4-9-9-4-4-|-------------4-4-3-3-2-2-4--|
||------------------7-7-------------|-------------------------2--|


                                                     To Coda
  N.C.                                                      F#5
  PM----------------------------|               PM--------|
|---------------------------------|------------------------------||
|---------------------------------|-----------------------------o||
|---------------------------------|-------------------------6----||
|---------------------------------|-4h5p4p2-4p2-------------4----||
|-4-4-4-4-7-7-4-4-----4-4-9-9-4-4-|-------------4-4-3-3-2-2-----o||
|-----------------7-7-------------|------------------------------||


   Verse
    C#5                     E5   C#5                     E5
    PM--------------------|      PM--------------------|
||-----------------------------|------------------------------||
||o----------------------------|-----------------------------o||
||--------------------------4--|-------------------------4----||
||--------------------------2--|-------------------------2----||
||o-4-4-4-4-4-4-4-4-4-4-4-4----|-4-4-4-4-4-4-4-4-4-4-4-4-----o||
||-----------------------------|------------------------------||


  A5B5A5 G#A5B5  C#5                     E5   A5B5A5 G#A5B5
                   PM------------------|
|--------------|----------------------------|--------------|
|--------------|----------------------------|--------------|
|--------------|-------------------------4--|--------------|
|--------------|-6-----------------------2--|--------------|
|-7-9-7--6-7-9-|-4-4-4-4-4-4-4-4-4-4-4-4----|-7-9-7--6-7-9-|
|-5-7-5--4-5-7-|----------------------------|-5-7-5--4-5-7-|


  C#5                     E5   A5B5A5 G#F#E5
    PM------------------|
|----------------------------|--------------|
|----------------------------|--------------|
|-------------------------4--|--------------|
|-6-----------------------2--|--------------|
|-4-4-4-4-4-4-4-4-4-4-4-4----|-7-9-7--6-4-2-|
|----------------------------|-5-7-5--4-2-0-|


  Original Tempo Q=120
  C#N.C.                        F#G5F#E5F#5    F#G5F#E5  B5
  Gtr I
              PM------------|
|-----------------------------|--------------------------------|
|-----------------------------|--------------------------------|
|---6-------------------------|--------------------------------|
|-6---6-5-4-2-----------------|--------------------------4-(4)-|
|-4-----------4-3-2-----------|-4S5S4-2-4--x-x-4S5S4-2-x-2-(2)-|
|-------------------4-3-2-1-0-|-2S3S2-0-2--x-x-2S3S2-0-x-------|
|
| Gtr II
|             PM------------|
|-----------------------------|--------------------------------|
|-----------------------------|--------------------------------|
|-----------------------------|--------------------------------|
|-6---------------------------|--------------------------4-(4)-|
|-4-----------4-3-2-----------|-4S5S4-2-4--x-x-4S5S4-2-x-2-(2)-|
|-------------------4-3-2-1-0-|-2S3S2-0-2--x-x-2S3S2-0-x-------|


  C#N.C.                        F#G5F#E5F#5    F#G5F#E5F#E5
  Gtrs I, II
              PM------------|
|-----------------------------|--------------------------------|
|-----------------------------|--------------------------------|
|---6-------------------------|--------------------------------|
|-6---6-5-4-2-----------------|--------------------------------|
|-4-----------4-3-2-----------|-4S5S4-2-4--x-x-4S5S4-2-4-2-(2)-|
|-------------------4-3-2-1-0-|-2S3S2-0-2--x-x-2S3S2-0-2-0-(0)-|


  C#N.C.                        F#G5F#E5F#5    F#G5F#E5  B5
              PM------------|
|-----------------------------|--------------------------------|
|-----------------------------|--------------------------------|
|---6-------------------------|--------------------------------|
|-6---6-5-4-2-----------------|--------------------------4-(4)-|
|-4-----------4-3-2-----------|-4S5S4-2-4--x-x-4S5S4-2-x-2-(2)-|
|-------------------4-3-2-1-0-|-2S3S2-0-2--x-x-2S3S2-0-x-------|


  C#N.C.                        F#G5F#E5F#5    F#G5F#E5F#E5
              PM------------|
|-----------------------------|--------------------------------|
|-----------------------------|--------------------------------|
|---6-------------------------|--------------------------------|
|-6---6-5-4-2-----------------|--------------------------------|
|-4-----------4-3-2-----------|-4S5S4-2-4--x-x-4S5S4-2-4-2-(2)-|
|-------------------4-3-2-1-0-|-2S3S2-0-2--x-x-2S3S2-0-2-0-(0)-|


                            Q=174
              D.S. al Coda  &
  D5    C#N.C.
                              PM----------------------------|
|---------------------------|---------------------------------|
|---------------------------|---------------------------------|
|---------------------------|---------------------------------|
|-7-----6-------------------|---------------------------------|
|-5-4p0-4-----3-----5-4-5-7-|-4-4-4-4-7-7-4-4-----4-4-9-9-4-4-|
|---------5-4---2-0---------|-----------------7-7-------------|


              PM--------|      PM----------------------------|
|----------------------------|----------------------------------|
|----------------------------|----------------------------------|
|----------------------------|----------------------------------|
|-4h5p4p2-4p2----------------|----------------------------------|
|-------------4-4-3-3-2-2-4--|-4-4-4-4-7-7-4-4-----4-4-9-9-4-4--|
|-------------------------2--|-----------------7-7--------------|


                                 Chorus
                                  E5                G5G#5
              PM--------|           PM------------|
|-----------------------------||------------------------|
|-----------------------------||o-----------------------|
|-----------------------------||------------------------|
|-4h5p4p2-4p2-----------------||--9---------------------|
|-------------4-4-3-3-2-2-4-2-||o-7-----------------5-6-|
|-------------------------2-0-||----0-0-0-0-0-0-0-0-3-4-|


  A5                  B5  C5                G5C5
    PM------------|         PM------------|
|-----------------------|-----------------------|
|-----------------------|-----------------------|
|-----------------------|-----------------------|
|---------------------4-|-5-------------------5-|
|-7-----------------7-2-|-3-3-3-3-3-3-3-3-3-5-3-|
|-5-5-5-5-5-5-5-5-5-5---|-------------------3---|

[ Tab from: http://www.guitartabs.cc/tabs/m/megadeth/killing_is_my_business_and_business_is_good_tab.html ]
  F#5
  Gtr I
    PM------------|
                             4x
|----------------------------||
|---------------------------o||
|----------------------------||
|----------------------------||
|-4-----------------4-(4)---o||
|-2-2-2-2-2-2-2-2-2-2-(2)-0--||
|
| Gtr II
|   PM------------|
|                            4x
|----------------------------||
|---------------------------o||
|----------------------------||
|----------------------------||
|-4-----------------4-(4)---o||
|-2-2-2-2-2-2-2-2-2-2-(2)-0--||


 Solo
  E5                     G5G#5
         PM------------|          PM------------|
|----------------------------|------------------------|
|----------------------------|------------------------|
|----------------------------|------------------------|
|--9-------------------------|----------------------4-|
|--7---------------------5-6-|--7-----------------7-2-|
|--------0-0-0-0-0-0-0-0-3-4-|--5-5-5-5-5-5-5-5-5-5---|
|
|-15b17======================|=15---------------------|
|----------------------------|------------------------|
|----------------------------|------------------------|
|----------------------------|------------------------|
|----------------------------|------------------------|
|----------------------------|------------------------|


        PM------------------|
|-----------------------------------------------|
|-----------------------------------------------|
|-----------------------------------------------|
|---5-----------------------------------5-------|
|---3---3--3--3----3-3-3--3--3--5-------3-------|
|-------------------------------3---------------|
|
|-(15)-15r---15b17-------15p12------------------|
|------------------------------15p13-12------12-|
|-----------------------------------------12----|
|-----------------------------------------------|
|-----------------------------------------------|
|-----------------------------------------------|


         PM------------------|
|---------------------------------------------------|
|---------------------------------------------------|
|---------------------------------------------------|
|---------------------------------------------------|
|--4-----------------------------4----(4)-----------|
|--2-----2--2--2--2--2--2--2--2--2----(2)-----0-----|
|
|---------------------------------------------------|
|---------------------------------------------------|
|-14p12----12---------------------------------------|
|-------14----14p12-14------------------------------|
|----------------------15-14-14-12-12---------------|
|-------------------------------------14--13-12-12--|


     PM---------------|
|------------------------------------------|
|------------------------------------------|
|------------------------------------------|
|--9---------------------------------------|
|--7----------------------5--------6-------|
|----0-0--0-0--0-0--0--0--3--------4-------|
|
|  ~~
|------------------------------------------|
|------------------------------------------|
|------------------------------------------|
|------------------------------------------|
|------------------------------------12-12-|
|-12-----12---12---12-12-13-13-14-14-------|


            PM-----------------------|
|------------------------------------------------------------|
|------------------------------------------------------------|
|------------------------------------------------------------|
|----------------------------------------------------4-------|
|--7-------------------------------------7-----------2-------|
|--5--------5--5--5----5-----5--5--5--5--5-------------------|
|
|------------------------------------------------------------|
|---------------------------------------------------12-13h15-|
|------------------------------------12-14p12h14-14----------|
|----------------12h14p==12-14p12-14-------------------------|
|-12h14p12-14-15---------------------------------------------|
|------------------------------------------------------------|


            PM---------------------|
|------------------------------------------------------------|
|------------------------------------------------------------|
|------------------------------------------------------------|
|--5-------------------------------------------------5-------|
|--3--------3--3--3--3--3--3--3----3-----5-----------3-------|
|----------------------------------------3-------------------|
|
|-15p12h15----12-12-12---------------------------------------|
|----------15----------15p13-15p13p==12----------------------|
|---------------------------------------14p12h14-12-------12-|
|---------------------------------------------------14-14----|
|------------------------------------------------------------|
|------------------------------------------------------------|


         PM------------------|
|--------------------------------------------|
|--------------------------------------------|
|--------------------------------------------|
|--------------------------------------------|
|--4------------------------------4---(4)----|
|--2-----2--2--2--2--2--2--2--2---2---(2)-0--|
|
|                             ~~~~~~~~~~~~
|--------------------------------------------|
|--------------------------------------------|
|-12h14h16-14-14-------14--------------------|
|----------------12h14----12-14-(14)-(14)----|
|--------------------------------------------|
|--------------------------------------------|


      PM------------------|                  PM------------|
|---------------------------------------|------------------------------------|
|---------------------------------------|------------------------------------|
|---------------------------------------|------------------------------------|
|--9------------------------------------|----------------------------4-------|
|--7-------------------------5-----6----|--7-----------------7-------2-------|
|-----0----0-0-0---0--0-0-0--3-----4----|--5-5-5-5-5-5-5-5-5-5---------------|
|
|                                          ~~~~~~~~~~~~~~~~~~~~~~~~~
|-12-15b17-------(15)-------15b17-15b17-|-15-------------------(15)-15p12-15-|
|---------------------------------------|------------------------------------|
|---------------------------------------|------------------------------------|
|---------------------------------------|------------------------------------|
|---------------------------------------|------------------------------------|
|---------------------------------------|------------------------------------|


     PM-----------------|
|-----------------------------------------------|
|-----------------------------------------------|
|-----------------------------------------------|
|--5---------------------------------5----------|
|--3-3-3--3--3--3--3--3--3--5--------3----------|
|---------------------------3-------------------|
|
|  ~~
|--------12-------------------------------------|
|-15--------15-13-12-12-13----------------------|
|--------------------------14-14-12-12-14p12h14-|
|-----------------------------------------------|
|-----------------------------------------------|
|-----------------------------------------------|


     PM----------------------|
|----------------------------------------------------|
|----------------------------------------------------|
|----------------------------------------------------|
|----------------------------------------------------|
|--4-----------------------------4----(4)------------|
|--2-2-2--2----2-----2--2--2--2--2----(2)-------0----|
|
|  ~~
|----------------------------------------------------|
|----------------------------------------------------|
|----------------------------------------------------|
|-14----------------12-14-------15-14----------12-14-|
|--------15p14p==12-------14p12-------15p14p12-------|
|----------------------------------------------------|


         PM--------------|
|------------------------------------|
|------------------------------------|
|------------------------------------|
|--9---------------------------------|
|--7-----------------------5------6--|
|--------0--0--0-0-0-0-0-0-3------4--|
|
|              ~~~~~~~~~~~~~~~~~~~
|----------12-15-------------(15)----|
|-12----12---------------------------|
|----14------------------------------|
|------------------------------------|
|------------------------------------|
|------------------------------------|


     PM------------------|
|-----------------------------------------------------|
|-----------------------------------------------------|
|-----------------------------------------------------|
|-----------------------------------------4-----------|
|--7---------------------------7----------2-----------|
|--5-5-5--5-5--5-5--5----5-----5----------------------|
|
|-14-----15---17---22p20p==19----19-20p19p==17----17--|
|-----------------------------22---------------20-----|
|-----------------------------------------------------|
|-----------------------------------------------------|
|-----------------------------------------------------|
|-----------------------------------------------------|


            PM---------------------|
|--------------------------------------------------------------|
|--------------------------------------------------------------|
|--------------------------------------------------------------|
|--5------------------------------------------------5----------|
|--3--------3--3--3--3--3--3--3----3-----5----------3----------|
|----------------------------------------3---------------------|
|
|-19p17p15----15-------19-22-22p20p==19-19-19-19p17p==15-15----|
|----------19----17-15--------------------------------------17-|
|--------------------------------------------------------------|
|--------------------------------------------------------------|
|--------------------------------------------------------------|
|--------------------------------------------------------------|


            PM----------------------------|
|-------------------------------------------------------------------|
|-------------------------------------------------------------------|
|-------------------------------------------------------------------|
|-------------------------------------------------------------------|
|--4------------------------------------------4-----(4)-------------|
|--2--------2--2--2----2-----2---2----2---2---2-----(2)-----0-------|
|
|-17p15p12----12-15p12---12-10p8p==7--------------------------------|
|----------15------------------------10p8p==7-----------------------|
|---------------------------------------------9p7-7-----------------|
|----------------------------------------------------9--7-----------|
|---------------------------------------------------------9-7-------|
|-------------------------------------------------------------7-5---|


|-----------------------------|-------------------------------|
|-----------------------------|-------------------------------|
|-----------------------------|-------------------------------|
|--5p=4p2-5--3p2p0-3--2p0-----|-------------------------------|
|-------------------------4p2-|---5p==4p2-5--5p4p0-3--3p2p0-2-|
|-----------------------------|-------------------------------|
|
|  \7
|-----------------------------|-------------------------------|
|-----------------------------|-------------------------------|
|-[5]-------------------------|-([5])-------------------------|
|-[5]-------------------------|-([5])-------------------------|
|-[5]-------------------------|-([5])-------------------------|
|-----------------------------|-------------------------------|


  Gtrs I, II
|----------|------------|------------|--------*|
|----------|------------|------------|--------*|
|----------|------------|------------|--------*|
|----------|------------|------------|--------*|
|-2--------|-(2)--------|-(2)--------|-(2)----*|
|-0--------|-(0)--------|-(0)--------|-(0)----*|



Comments