Megadeth - Kill The King Chords & Tabs

 

Kill The King Chords & Tabs

Megadeth Chords & Tabs

Version: 3 Type: Tab 0 ratings
1 star 2 stars 3 stars 4 stars 5 stars
comments

Kill The King Tab

   
Megadeth, Kill the King.
 Tabbed by Chris, cocobro5@hotmail.com.
  

Part A: (Play 24 times)
|--------------------------|
|--------------------------|
|--------------------------|
|--------------------------|
|--------------------------|
|--0-0-0-0-0000000000------|


Jimmy DeGrasso starts after 8 Part A.
Dave Mustaine starts after 16 Part A.


Part B:                            (Play 2 times)
|--------------------------------||--------------------------|
|--------------------------------||--------------------------|
|--------------------------------||--------------------------|
|--5----4^----5----4^------------||--------------------------|
|--5----4^----5----4^------------||--------------------------|
|--3----2^----3----2^------------||--0-0-0-0-0000000000------|


|--------------------------------|
|--------------------------------|
|--------------------------------|
|--5----4^----5----4^------------|
|--5----4^----5----4^------------|
|--3----2^----3----2^------------|



Part C:
Guitar 1
|--------------------------------------------------------------------|
|--------------------------------------------------------------------|
|--------------------------------------------------------------------|
|--------------------------------------------------------------------|
|-5h7-5h7-5h7-5h7-5h7--7h10-7h10-7h10-7h10-7h10--7h9-7h9-7h9-7h9-7h9-|
|--------------------------------------------------------------------|


(Second time twice)
|--------------------------------|
|--------------------------------|
|--------------------------------|
|--------------------------------|
|-7h8-7h8-7h8-7h8-7h8------------|
|--------------------------------|


Guitar 2 (Play 2 times)
|----------------------------------|
|----------------------------------|
|----------------------------------|
|--2----5----4----3----------------|
|--2----5----4----3----------------|
|--0----3----2----1----------------|



Play Part A (16 times)

Play Part B

Play Part C



Part D: (Play 8 times)
|-------------------------------|
|-------------------------------|
|-------------------------------|
|-------------------------------|
|-------------------------------|
|--0-0--0000-0-0-0000-----------|



Part E:
Guitar 1 (Solo)

 - Coming Soon -

[ Tab from: http://www.guitartabs.cc/tabs/m/megadeth/kill_the_king_tab_ver_3.html ]
Guitar 2 (Play 8 times)
|-----------------------------------------------------|
|-----------------------------------------------------|
|-----------------------------------------------------|
|--5----6---3-----------------------------------------|
|--5----6---3-----------------------------------------|
|--3----4---1---0-0-0-0-0-0-0-0-0-0-0-0-0-0-0-0-------|



Part F:
Guitar 2 (Play 4 times)
|----------------------------------------------------------------------|
|----------------------------------------------------------------------|
|----------------------------------------------------------------------|
|--2222222222--5555555555--4444444444--333333333--5555-----------------|
|--2222222222--5555555555--4444444444--333333333--5555-----------------|
|--0000000000--3333333333--2222222222--111111111--3333-----------------|
   ~~~~~~~~~~  ~~~~~~~~~~  ~~~~~~~~~~  ~~~~~~~~~  ~~~~

After 2 times:
 ____________________________________________________
/                                                    \\
| I think this part is look like Tornado Of Souls.   |
| Al Pitrelli is learning to Marty Friedman's solos. |
\\____________________________________________________/

Guitar 1 (Play 2 times)
|--15p10---15p10---15p10---15p10---15p10----19p10---19p10---19p10---19p10---19p10-----|
|-------12------12------12------12------12-------12------12------12------12------12---|
|-------------------------------------------------------------------------------------|
|-------------------------------------------------------------------------------------|
|-------------------------------------------------------------------------------------|
|-------------------------------------------------------------------------------------|

                                                                                     Last time
|--18p10---18p10---18p10---18p10---18p10----17p10---17p10---17p10---17p10----19h10---|--15~/--|
|-------12------12------12------12------12-------12------12------12------12-------12-|--------|
|------------------------------------------------------------------------------------|--------|
|------------------------------------------------------------------------------------|--------|
|------------------------------------------------------------------------------------|--------|
|------------------------------------------------------------------------------------|--------|

 
:: Ultimate Guitar Archive :: 
http://www.ultimate-guitar.com 



Comments