Megadeth - Kick The Chair Chords & Tabs

 

Kick The Chair Chords & Tabs

Megadeth Chords & Tabs

Version: 1 Type: Tab 0 ratings
1 star 2 stars 3 stars 4 stars 5 stars
comments

Kick The Chair Tab

   
tabbed by: Matt stone
tuning:E A D G B E

intro w/dist

E-----------------------|----------------------|----------|
B-----------------------|----------------------|----------|
G-----------------------|----------------------|----------|
D-----------------------|--------------------5-|----------|
A-4---2---------------5-|-4---2--------------3-|-7-6-5-6-7|
E-2-2-0-0-22222-00-22-3-|-2-2-0-0-22222-00-22--|-5-4-3-4-5|

E-----------------------|----------------------|----------|
B-----------------------|----------------------|----------|
G-----------------------|----------------------|----------|
D-----------------------|--------------------5-|----------|
A-4---2---------------5-|-4---2--------------3-|-7*6*5*6*7*(pinch harmonics)
E-2-2-0-0-22222-00-22-3-|-2-2-0-0-22222-00-22--|----------|

E----------------------|--------------|---------------------------------|
B----------------------|--------------|---------------------------------|
G----------------------|--------------|---------------------------------|
D----------------------|--------------|---------------------------------|
A-4---------4---------4|---------4-2-5|-5-4-3-2-----------------0-1-2-3-|
E-2-3-3-2-0-2-3-3-2-0-2|-3-3-2-0-2-0-3|---------5-4-3-2-0-1-2-3---------|

verse

E-----------------------|----------------------------|
B-----------------------|----------------------------|
G-----------------------|----------------------------|
D-----------------------|----------------------------|
A-2p0-----------3p2h3p2-|-2p0------------------------|
E-----3-2-0-0-2---------|-----3-2-0-0-2-0-0-0-3-3-3-2|
[ Tab from: http://www.guitartabs.cc/tabs/m/megadeth/kick_the_chair_tab.html ]
E-----------------------|-----------------------------|
B-----------------------|-----------------------------|
G-----------------------|-----------------------------|
D-----------------------|-----------------------------|
A-2p0-----------3p2h3p2-|-2p0----------5-4-3-2--------|
E-----3-2-0-0-2---------|-----3-2-0-0-2--------5-4-3-2|

(chorus is the same as intro)

solo (mustane)

E-7p5-00-7p5h8p5-0-10p0-8p5-7p5|8p5---5h8-10p5-5h10p5-8p5-7p5|
B------------------------------|----6---------6--------------|
G------------------------------|-----------------------------|
D------------------------------|-----------------------------|
A------------------------------|-----------------------------|
E------------------------------|-----------------------------|

E------------------------------|---------------7-5-4-5-4-----|x2
B-6p3--3h6p3-5p3-6-5-3-5-3-----|--------------------6---6-5--|
G-----4---------------5---5-4--|5p4---4-5p4-7p4--------------|
D------------------------------|----7------------------------|
A------------------------------|-----------------------------|
E------------------------------|-----------------------------|

E-10-7-8---8-7----7---------------| 
B--------10---10-9-9-10--10-9-----|
G----------------------10----10-9-|
D---------------------------------|
A---------------------------------|
E---------------------------------|

E---------|-----------------|
B---------|-5--6--5---------|
G---------|---------7--5--4-|
D-7~~~~~~~|-----------------|
A---------|-----------------|
E---------|-----------------|

E
B
G----------------------
D-7t---10t--12t-13t-14t
A
E
Comments