Megadeth - Into The The Lungs Of Hell Chords & Tabs

 

Into The The Lungs Of Hell Chords & Tabs

Megadeth Chords & Tabs

Version: 1 Type: Tab 0 ratings
1 star 2 stars 3 stars 4 stars 5 stars
comments

Into The The Lungs Of Hell Tab

   
 Megadeth
Into the lungs of hell
 
Gtr I (E A D G B E) - 'Mustaine'
Gtr II (E A D G B E) - 'Young'
Gtr III (E A D G B E) - 'Harmony'

 Instrumental
  Moderate Rock Q=120
  A              E
 4/4
  Gtr I
|--------------|------------------|
|--------------|------------------|
|--------------|------------------|
|-2------------|------------------|
|-0------0-0-0-|-2----------------|
|--------------|-0----------0-0-0-|
|
| Gtr II
|--------------|------------------|
|-2------------|------------------|
|-2------2-2-2-|-1----(1)---1-----|
|-2------2-2-2-|-2----(2)-----2---|
|-0------------|-2----(2)-2-----2-|
|--------------|-0----(0)---------|


  B                      F#                      C5
|----------------------|----------------------||-----------------------|
|----------------------|----------------------||-----------------------|
|----------------------|----------------------||-5----(5)-(5)----------|
|-4----(4)-(4)---------|----------------------||-5----(5)-(5)----------|
|-2----(2)-(2)-2-2-2-2-|-4--------4---4---4---||-3----(3)-(3)-3-3-3-3--|
|-2----(2)-(2)---------|-2--2-2-2-2---2---2---||-----------------------|
|
|----------------------|----------------------||-----------------------|
|----------------------|----------------------||----------------5------|
|----------------------|----------------------||-5----(5)---------5----|
|-1----(1)-(1)---1-----|-4--x-x-x-4-x-4-x-4-x-||-5----(5)-----5-----5--|
|-2----(2)-(2)-----2---|-4--x-x-x-4-x-4-x-4-x-||-3----(3)--------------|
|-2----(2)-(2)-2-----2-|-2--2-2-2-2-2-2-2-2-2-||-----------------------|


  G5                 D5/A               A5
|------------------|------------------|-----------------------|
|------------------|------------------|-----------------------|
|------------------|------------------|-2---------------------|
|------------------|-7----------------|-2--------------2-2-2--|
|-5----------------|-5----------5-5-5-|-0--------0-0-0-0-0-0--|
|-3----------3-3-3-|-5----------------|-0---------------------|
|
|------------------|------------------|-----------------------|
|------------------|------------------|-----------------------|
|------------4-----|------------------|-----------------------|
|-5----(5)-----5---|-4----(4)---4-----|-7---------------------|
|-5----(5)-5-----5-|-5----(5)-----5---|-4--4-4-4-4-x-4-x-4-x--|
|-3----(3)---------|-5----(5)-5-----5-|-5--5-5-5-5-5-5-5-5-5--|


  Eb         F5 Eb5 Bb5        A5Ab5  C#5        D#C#5
  Gtrs I, II
|-----------------|----------------||----------------|
|-----------------|----------------||----------------|
|-----------------|----------------||----------------|
|-8--------8-10-8-|----------------||-6--------6-8-6-|
|-6--6-6-6-6--8-6-|-8--------8-7-6-||-4--4-4-4-4-6-4-|
|-----------------|-6--6-6-6-6-5-4-||----------------|


  G#5        G5F#5  B5         C#B5  F#5        F5E5
|----------------||----------------|----------------|
|----------------||----------------|----------------|
|----------------||----------------|----------------|
|----------------||-4--------4-6-4-|----------------|
|-6--------6-5-4-||-2--2-2-2-2-4-2-|-4--------4-3-2-|
|-4--4-4-4-4-3-2-||----------------|-2--2-2-2-2-1-0-|


  A5               E5         EbE5
|----------------|----------------|
|----------------|----------------|
|----------------|----------------|
|-2--2-2-2-2-4-2-|----------9-8-7-|
|-0--0-0-0-0-2-0-|-7--------7-6-5-|
|----------------|-0--0-0-0-------|


           Fast Rock Q=180
  A5  G#G5    E5
 2/4         4/4
  Gtr I
|----------||-------------------------|-------------------------|
|----------||-------------------------|-------------------------|
|----------||-------------------------|-------------------------|
|----------||-------------------------|-------------------------|
|--7--6-5--||-------------------------|-------------------------|
|--5--4-3--||-0-0-0-0-0-0-0-0-0-0-0-0-|-0-0-0-0-0-0-0-0-0-0-0-0-|
|
| Gtr II
|----------||-------------------------|-------------------------|
|-14/------||-------------------------|-------------------------|
|-14/------||-------------------------|-------------------------|
|----------||---6---7p6-----6---7p6---|-7p6---7p6---7p6---6-9-7-|
|----------||-7---8-----8-7---8-----8-|-----8-----8-----8-------|
|----------||-------------------------|-------------------------|


|---------------------------------|---------------------------------|
|---------------------------------|---------------------------------|
|---------------------------------|---------------------------------|
|---------------------------------|---------------------------------|
|---------------------------------|---------------------------------|
|--0-0--0--0-0--0--0-0--0--0-0--0-|--0-0--0--0-0--0--0-0--0--0-0--0-|
|
|---------------------------------|---------------------------------|
|---------------------------------|---------------------------------|
|---------------------------------|----------------------------9----|
|-10-9-12-10-9----10-9-12-10-9----|-10-9-12-10-9----10-9-12-10---12-|
|--------------12--------------12-|--------------12-----------------|
|---------------------------------|---------------------------------|


|------------------------------------|------------------------------------|
|------------------------------------|------------------------------------|
|------------------------------------|------------------------------------|
|------------------------------------|------------------------------------|
|------------------------------------|------------------------------------|
|--0-0--0--0--0--0--0--0--0--0--0--0-|--0--0--0--0--0--0--0--0--0--0--0-0-|
|
|------------------------------------|-12-------12----13-12-15-13-17-15-0-|
|------------10----12----13-12-15-13-|----13-15----15---------------------|
|-10-9-12-10----12----14-------------|------------------------------------|
|------------------------------------|------------------------------------|
|------------------------------------|------------------------------------|
|------------------------------------|------------------------------------|


|---------------------------------------|
|---------------------------------------|
|---------------------------------------|
|---------------------------------------|
|---------------------------------------|
|--0----0-0---0--0-0--0----0-0---0--0-0-|
|
|-19b21-----(19)-----19b21-----(19)-----|
|---------------------------------------|
|---------------------------------------|
|---------------------------------------|
|---------------------------------------|
|---------------------------------------|


|--------------------------------------------------------------------|
|--------------------------------------------------------------------|
|--------------------------------------------------------------------|
|--------------------------------------------------------------------|
|--------------------------------------------------------------------|
|--0-----0----0-----0----0----0-----0----0----0-----0----0----0------|
|
|-20-19-17S16---19p17p16S==10---13p12p10-----------------------------|
|------------------------------------------13---12-10----------------|
|-----------------------------------------------------13---12---10---|
|--------------------------------------------------------------------|
|--------------------------------------------------------------------|
|--------------------------------------------------------------------|


|--------------------------|-------------------------------|
|--------------------------|-------------------------------|
|--------------------------|-------------------------------|
|--------------------------|-------------------------------|
|--------------------------|-------------------------------|
|-0-0-0-0-0-0-0-0-0-0-0--0-|-0--0--0--0-0--0-0-0--0-0-0--0-|
|
| ~
|--------------------------|-------------------------------|
|--------------------------|-9-10-12-10-9------------------|
|-9-----------------7-9-10-|--------------10-7-9-10-7-9-10-|
|--------------------------|-------------------------------|
|--------------------------|-------------------------------|
|--------------------------|-------------------------------|


|---------------------------|--------------------------------|
|---------------------------|--------------------------------|
|---------------------------|--------------------------------|
|---------------------------|--------------------------------|
|---------------------------|--------------------------------|
|--0-0-0-0-0-0-0-0-0--0-0-0-|-0---0---0---0-0-0-0-0-0-0-0-0--|
|
|  ~~
|---------------------------|--------------------------------|
|---------------------------|--------------------------------|
|-10------------------------|--------------------------------|
|---------------------------|-6-7---6-----6-7-9-7-6-----6----|
|-----------------------7-8-|-----------8-----------8-7---8--|
|--------------------10-----|--------------------------------|


|---------------------------|-----------------------------------|
|---------------------------|-----------------------------------|
|---------------------------|-----------------------------------|
|---------------------------|-----------------------------------|
|---------------------------|-----------------------------------|
|-0-0-0-0-0-0-0-0-0-0-0---0-|-0-0---0-0---0---0-0-0---0-0-0---0-|
|
|                                                           ~
|---------------------------|-----------------------------------|
|---------------------------|-----------------------------------|
|---------------------------|-----------------------------------|
|---------------------------|-----------------------------------|
|-5-7-7-7-------------------|-----------------------------------|
|-------------------7---8---|-8---7---5-7---5---4---5---7---8---|


|---------------------------|-------------------------|
|---------------------------|-------------------------|
|---------------------------|-------------------------|
|---------------------------|-------------------------|
|---------------------------|-------------------------|
|--0--0-0-0-0-0-0-0-0-0-0-0-|-0-0-0-0-0-0-0-0-0-0-0-0-|
|
|  ~~~
|---------------------------|-------------------------|
|---------------------------|-------------------------|
|---------------------------|-------------------------|
|---------------------------|-6-7-8-7-6---------------|
|---------------------------|-----------8-7-----------|
|-(8)-----------------------|---------------5-4-7-5-4-|


  E5                      G5                         F#5G5
|----------|------------|----------------|------------------|
|----------|------------|----------------|------------------|
|----------|------------|----------------|------------------|
|-9--------|------------|----------------|-12---------------|
|-7--------|--2---------|--5-------------|-10-----5--4--5---|
|-0--------|--0---------|--3-------3-3-3-|--------3--2--3---|
|
|----------|------------|----------------|------------------|
|----------|------------|----------------|------------------|
|----------|------------|----------------|------------------|
|-9--------|-(9)--------|-(9)------------|-(9)--------------|
|-7--------|-(7)--------|-(7)------------|-(7)--------------|
|----------|------------|----------------|------------------|


  E5                        G5                             F#5G5
|------------|------------|-----------------|---------------------|
|------------|------------|-----------------|---------------------|
|------------|------------|-----------------|---------------------|
|--9---------|------------|-----------------|---12----------------|
|--7---------|--2---------|---5-------------|---10------5--4--5---|
|--0---------|--0---------|---3-------3-3-3-|-----------3--2--3---|
|
|                             >
|------------|------------|-----------------|---------------------|
|------------|------------|-----------------|---------------------|
|------------|------------|-----------------|---------------------|
|-(9)--------|-(9)--------|--(9)------------|---(9)---------------|
|-(7)--------|-(7)--------|--(7)------------|---(7)---------------|
|------------|------------|-----------------|---------------------|
|
| Gtr III
|                             <
|------------|------------|-[16]------------|-([16])--------------|
|------------|------------|-----------------|---------------------|
|------------|------------|-----------------|---------------------|
|------------|------------|-----------------|---------------------|
|------------|------------|-----------------|---------------------|
|------------|------------|-----------------|---------------------|


  E5                              G5                               F#5G5
|---------------|---------------|-------------------|---------------------|
|---------------|---------------|-------------------|---------------------|
|---------------|---------------|-------------------|---------------------|
|----9----------|---------------|-------------------|---12----------------|
|----7----------|----2----------|----5--------------|---10------5--4--5---|
|----0----------|----0----------|----3--------3-3-3-|-----------3--2--3---|
|
| Gtr III
|-([16])--------|-([16])--------|-([16])------------|-([16])--------------|
|---------------|---------------|-------------------|---------------------|
|---------------|---------------|-------------------|---------------------|
|---------------|---------------|-------------------|---------------------|
|---------------|---------------|-------------------|---------------------|
|---------------|---------------|-------------------|---------------------|


  E5                              G5                                 F#5 G5
|---------------|---------------|--------------------|-----------------------|
|---------------|---------------|--------------------|-----------------------|
|---------------|---------------|--------------------|-----------------------|
|----9----------|---------------|--------------------|-12--------------------|
|----7----------|----2----------|----5---------------|-10--------5---4---5---|
|----0----------|----0----------|----3---------3-3-3-|-----------3---2---3---|
|
|                                                      Gtr II
|-([16])--------|-([16])--------|-([16])\------------|-----------------------|
|---------------|---------------|--------------------|-----------------------|
|---------------|---------------|--------------------|-----------------------|
|---------------|---------------|--------------------|-----------------------|
|---------------|---------------|--------------------|--2s17---(17)s===2-----|
|---------------|---------------|--------------------|-----------------------|


    E5
     T       T       T       T         T       T       T       T
||--24p12p0-24p12p0-24p12p0-24p12p0-|-24p12p0-24p12p0-24p12p0-24p12p0-|
||o---------------------------------|---------------------------------|
||----------------------------------|---------------------------------|
||----------------------------------|---------------------------------|
||o---------------------------------|---------------------------------|
||----------------------------------|---------------------------------|
|
||----------------------------------|---------------------------------|
||o---------------------------------|---------------------------------|
||----------------------------------|---------------------------------|
||---9------------------------------|---------------------------------|
||o--7------------------------------|--2------------------------------|
||---0------------------------------|--0------------------------------|

[ Tab from: http://www.guitartabs.cc/tabs/m/megadeth/into_the_the_lungs_of_hell_tab.html ]
  G5                                                      F#5  G5
   T       T       T       T         T       T       T       T
|-22p12p0-22p12p0-22p12p0-22p12p0-|-22p12p0-22p12p0-22p12p0-22p12p0-|
|---------------------------------|---------------------------------|
|---------------------------------|---------------------------------|
|---------------------------------|---------------------------------|
|---------------------------------|---------------------------------|
|---------------------------------|---------------------------------|
|
|---------------------------------|---------------------------------|
|---------------------------------|---------------------------------|
|---------------------------------|---------------------------------|
|---------------------------------|-12------------------------------|
|--5------------------------------|-10---------------5----4-----5---|
|--3-----------------------3--3-3-|------------------3----2-----3---|


  E5
   T       T       T       T         T       T      T       T
|-20p12p0-19p12p0-17p12p0-20p12p0-|-19p12p0-17p0-0-15p12p0-14p12p0-|
|---------------------------------|--------------------------------|
|---------------------------------|--------------------------------|
|---------------------------------|--------------------------------|
|---------------------------------|--------------------------------|
|---------------------------------|--------------------------------|
|
|---------------------------------|--------------------------------|
|---------------------------------|--------------------------------|
|---------------------------------|--------------------------------|
|--9------------------------------|--------------------------------|
|--7------------------------------|--2-----------------------------|
|--0------------------------------|--0-----------------------------|


  G5                                               F#5  G5
   T      T      T      T        T      T      T      T
                                                             4x
|-12p7p0-12p7p0-12p7p0-12p7p0-|-12p7p0-12p7p0-12p7p0-12p7p0--||
|-----------------------------|-----------------------------o||
|-----------------------------|------------------------------||
|-----------------------------|------------------------------||
|-----------------------------|-----------------------------o||
|-----------------------------|------------------------------||
|
|                                                            4x
|-----------------------------|------------------------------||
|-----------------------------|-----------------------------o||
|-----------------------------|------------------------------||
|-----------------------------|-12---------------------------||
|--5--------------------------|-10-------------5---4----5---o||
|--3--------------------3-3-3-|----------------3---2----3----||


    A5                         F5
||--------------------------||-------------------------|
||o-------------------------||-------------------------|
||--------------------------||-------------------------|
||--------------------------||-------------------------|
||o-7-----------------------||-3-----------------------|
||--5-----------------------||-1-----------------------|
|
|   T     T     T     T        T     T     T     T
||--8p5p0-7p5p0-8p5p0-7p5p0-||-8p5p0-7p5p0-8p5p0-7p5p0-|
||o-------------------------||-------------------------|
||--------------------------||-------------------------|
||--------------------------||-------------------------|
||o-------------------------||-------------------------|
||--------------------------||-------------------------|


  A5                        C5          B5    C5
|-------------------------|--------------------------||
|-------------------------|-------------------------o||
|-------------------------|--------------------------||
|-2-----------------------|-5-----------4-----5------||
|-0-----------------------|-3-----------2-----3-----o||
|-------------------------|--------------------------||
|
| T     T     T     T       T     T     T     T
|-8p5p0-7p5p0-8p5p0-7p5p0-|-8p5p0-7p5p0-8p5p0-7p5p0--||
|-------------------------|-------------------------o||
|-------------------------|--------------------------||
|-------------------------|--------------------------||
|-------------------------|-------------------------o||
|-------------------------|--------------------------||


    A5                C5      G5                C5
||--------------------------|--------------------------|
||o-------------------------|--------------------------|
||--------------------------|--------------------------|
||--2-----------------5-----|-------------------5------|
||o-0-----------------3-----|-5-----------------3------|
||--------------------------|-3------------------------|
|
|   T     T     T     T       T     T     T     T
||--8p5p0-7p5p0-8p5p0-7p5p0-|-8p5p0-7p5p0-8p5p0-7p5p0--|
||o-------------------------|--------------------------|
||--------------------------|--------------------------|
||--------------------------|--------------------------|
||o-------------------------|--------------------------|
||--------------------------|--------------------------|


  F#5               C5      D5    C5    B5    C5
|-------------------------|-------------------------|
|-------------------------|-------------------------|
|-------------------------|-2-----------------------|
|-------------------5-----|-0-----5-----4-----5-----|
|-4-----------------3-----|-------3-----2-----3-----|
|-2-----------------------|-------------------------|
|
| T     T     T     T       T     T     T     T
|-8p5p0-7p5p0-8p5p0-7p5p0-|-8p5p0-7p5p0-8p5p0-7p5p0-|
|-------------------------|-------------------------|
|-------------------------|-------------------------|
|-------------------------|-------------------------|
|-------------------------|-------------------------|
|-------------------------|-------------------------|


  A5                C5      G5                C5
|-------------------------|-------------------------|
|-------------------------|-------------------------|
|-------------------------|-------------------------|
|-2-----------------5-----|-------------------5-----|
|-0-----------------3-----|-5-----------------3-----|
|-------------------------|-3-----------------------|
|
| T     T     T     T       T     T     T     T
|-8p5p0-7p5p0-8p5p0-7p5p0-|-8p5p0-7p5p0-8p5p0-7p5p0-|
|-------------------------|-------------------------|
|-------------------------|-------------------------|
|-------------------------|-------------------------|
|-------------------------|-------------------------|
|-------------------------|-------------------------|


                           1.
  F#5               C5      D5          E5    G5
|-------------------------|--------------------------||
|-------------------------|-------------------------o||
|-------------------------|-2-----------4------------||
|-------------------5-----|-0-----------2------------||
|-4-----------------3-----|-------------------5-----o||
|-2-----------------------|-------------------3------||
|
| T     T     T     T       T     T     T     T
|-8p5p0-7p5p0-8p5p0-7p5p0-|-8p5p0-7p5p0-8p5p0-7p5p0--||
|-------------------------|-------------------------o||
|-------------------------|--------------------------||
|-------------------------|--------------------------||
|-------------------------|-------------------------o||
|-------------------------|--------------------------||


 2.
  D5          E5
|--------------------------|
|--------------------------|
|-2-----------4------------|
|-0-----------2------------|
|--------------------------|
|--------------------------|
|
| T     T     T     T
|-8p5p0-7p5p0-8p5p0-7p5p0--|
|--------------------------|
|--------------------------|
|--------------------------|
|--------------------------|
|--------------------------|


    B5                  D5      A5                  D5
||----------------------------|---------------------------|
||o---------------------------|---------------------------|
||----------------------------|---------------------------|
||----------------------7-----|---------------------7-----|
||o--9------------------5-----|--7------------------5-----|
||---7------------------------|--5------------------------|
|
|    T     T      T     T        T     T      T     T
||--10p7p0-9p7p0-10p7p0-9p7p0-|-10p7p0-9p7p0-10p7p0-9p7p0-|
||o---------------------------|---------------------------|
||----------------------------|---------------------------|
||----------------------------|---------------------------|
||o---------------------------|---------------------------|
||----------------------------|---------------------------|


  G#5                 D5
|---------------------------|
|---------------------------|
|---------------------------|
|---------------------7-----|
|--6------------------5-----|
|--4------------------------|
|
|  T     T      T     T
|-10p7p0-9p7p0-10p7p0-9p7p0-|
|---------------------------|
|---------------------------|
|---------------------------|
|---------------------------|
|---------------------------|


 1.                            2.
  E5     D5    C#5    D5        E5           F#5
|----------------------------||---------------------------|
|---------------------------o||---------------------------|
|----------------------------||---------------------------|
|--9-----7------6-----7------||--9-----------11-----------|
|--7-----5------4-----5-----o||--7------------9-----------|
|----------------------------||---------------------------|
|
|  T     T      T     T          T     T      T     T
|-10p7p0-9p7p0-10p7p0-9p7p0--||-10p7p0-9p7p0-10p7p0-9p7p0-|
|---------------------------o||---------------------------|
|----------------------------||---------------------------|
|----------------------------||---------------------------|
|---------------------------o||---------------------------|
|----------------------------||---------------------------|


    G5                            F#5
||------------------------------|------------------------------||
||o-----------------------------|-----------------------------o||
||------------------------------|------------------------------||
||--12--------------------------|-11---------------------------||
||o-10--------------------------|--9--------------------------o||
||------------------------------|------------------------------||
|
|    T      T      T      T        T      T      T      T
||--12p9p6-12p9p6-12p9p6-12p9p6-|-12p9p6-12p9p6-12p9p6-12p9p6--||
||o-----------------------------|-----------------------------o||
||------------------------------|------------------------------||
||------------------------------|------------------------------||
||o-----------------------------|-----------------------------o||
||------------------------------|------------------------------||


    Bb5                               A5
||----------------------------------|----------------------------------||
||o---------------------------------|---------------------------------o||
||--10------------------------------|--9-------------------------------||
||---8------------------------------|--7-------------------------------||
||o---------------------------------|---------------------------------o||
||----------------------------------|----------------------------------||
|
|    T       T       T       T         T       T       T       T
||--15p12p9-15p12p9-15p12p9-15p12p9-|-15p12p9-15p12p9-15p12p9-15p12p9--||
||o---------------------------------|---------------------------------o||
||----------------------------------|----------------------------------||
||----------------------------------|----------------------------------||
||o---------------------------------|---------------------------------o||
||----------------------------------|----------------------------------||


    C#5
||--------------------------------------|
||o-------------------------------------|
||--13----------------------------------|
||--11----------------------------------|
||o-------------------------------------|
||--------------------------------------|
|
|    T        T        T        T
||--18p15p12-18p15p12-18p15p12-18p15p12-|
||o-------------------------------------|
||--------------------------------------|
||--------------------------------------|
||o-------------------------------------|
||--------------------------------------|


 1.                                      2.
  C5                                      C5
|--------------------------------------||---------------------------------------|
|-------------------------------------o||---------------------------------------|
|-12-----------------------------------||-12------------------------------------|
|-10-----------------------------------||-10------------------------------------|
|-------------------------------------o||---------------------------------------|
|--------------------------------------||---------------------------------------|
|
|  T        T                              T        T        T        T
|-18p15p12-18p15p12--------------------||-18p15p12-18p15p12-18p15p12-18p15p12---|
|-------------------12h13h14h15p14p13-o||---------------------------------------|
|--------------------------------------||---------------------------------------|
|--------------------------------------||---------------------------------------|
|-------------------------------------o||---------------------------------------|
|--------------------------------------||---------------------------------------|


  C#5               C5                  C#5               C5
|-------------------------------------|-------------------------------------|
|-------------------------------------|-------------------------------------|
|-13----------------12----------------|-13----------------12----------------|
|-11----------------10----------------|-11----------------10----------------|
|-------------------------------------|-------------------------------------|
|-------------------------------------|-------------------------------------|
|
|  T        T        T        T          T        T        T        T
|-18p15p12-18p15p12-------------------|-18p15p12-18p15p12-------------------|
|-------------------20p17p14-20p17p14-|-------------------20p17p14-20p17p14-|
|-------------------------------------|-------------------------------------|
|-------------------------------------|-------------------------------------|
|-------------------------------------|-------------------------------------|
|-------------------------------------|-------------------------------------|


  C#5      C5       C#5      C5         C#5      C5       C#5      C5
|-------------------------------------|-------------------------------------|
|-------------------------------------|-------------------------------------|
|-13-------12-------13-------12-------|-13-------12-------13-------12-------|
|-11-------10-------11-------10-------|-11-------10-------11-------10-------|
|-------------------------------------|-------------------------------------|
|-------------------------------------|-------------------------------------|
|
|  T        T        T        T          T        T        T        T
|-18p15p12----------18p15p12----------|-18p15p12----------18p15p12----------|
|----------20p17p14----------20p17p14-|----------20p17p14----------20p17p14-|
|-------------------------------------|-------------------------------------|
|-------------------------------------|-------------------------------------|
|-------------------------------------|-------------------------------------|
|-------------------------------------|-------------------------------------|


  F#5        F5         E5         Bb5
  Gtrs I, II
|----------|----------|----------|------|
|----------|----------|----------|------|
|----------|----------|----------|------|
|----------|----------|----------|-8----|
|-4--------|-3--------|-2--------|-6----|
|-2--------|-1--------|-0--------|-6----|


  Asus4
                                        >
|----------|------------|------------|------------|------------|--------*|
|----------|------------|------------|------------|------------|--------*|
|----------|------------|------------|------------|------------|--------*|
|-7--------|-(7)--------|-(7)--------|-(7)--------|-(7)--------|-(7)----*|
|-5--------|-(5)--------|-(5)--------|-(5)--------|-(5)--------|-(5)----*|
|-5--------|-(5)--------|-(5)--------|-(5)--------|-(5)--------|-(5)----*|



Comments