Megadeth - Insomnia Chords & Tabs

 

Insomnia Chords & Tabs

Megadeth Chords & Tabs

Version: 4 Type: Tab 0 ratings
1 star 2 stars 3 stars 4 stars 5 stars
comments

Insomnia Tab

   
Insomia - Megadeth: Risk

This song is great. I like standard tuning.


Riff A

E||----------------------||
B||*--------------------*||
G||----------------------||
D||---7--7--8---5---7----||
A||*--0--0-(0)-(0)-(0)--*||
E||----------------------||

Riff A is played twice on an electric sitar.
Then the distortion kicks in with vocals.
Play 3 times, then add this:
[ Tab from: http://www.guitartabs.cc/tabs/m/megadeth/insomnia_tab_ver_4.html ]
E||--------------||
B||--------------||
G||-5----4--3----||
D||-5----4--3----||
A||-3----2--1----||
E||--------------||
    C5   B5 A#5(Bb5)

-----------------------------------------------
Want to talk music (specifically heavy meatal)?
Then give me a buzz:
AIM screenname: suprhevydethmetl

 _        _
/ \      / \
| |      | |
| |      | |
| | _  _ | |
| |/ \/ \| |
| || || || |
|  |_||_|_ |
| /       \|
|   ______/|
|  /       |
 \        /
Comments