Megadeth - Hangar 18 Chords & Tabs

 

Hangar 18 Chords & Tabs

Megadeth Chords & Tabs

Version: 3 Type: Tab 0 ratings
1 star 2 stars 3 stars 4 stars 5 stars
comments

Hangar 18 Tab

Hangar 18 - The Solos.


Solo 1 (Marty):

                            pb16*        
|---------|---------------------|------------------------------------|
|-----15b-|(17)~~~~~-15b(17)-18-|-(18)r------------------------------|
|---------|---------------------|-------14-17b(20)r(17)b(20)r(17)-14-|
|---------|---------------------|------------------------------------|
|---------|---------------------|------------------------------------|
|---------|---------------------|------------------------------------|

  *(16 fretted whilest holding previous bend, thus sounding a virtual 18th fret)

                          pb20                            
|----15/17-20-17h20p17----------|-----------------------------------------|
|-----------------------20-22~~~|(22)-20p18-18b(20)-r18-------------------|
|-17----------------------------|-----------------------19b(21)r(19)b(21)\|
|-------------------------------|-----------------------------------------|
|-------------------------------|-----------------------------------------|
|-------------------------------|-----------------------------------------|



|-17-p13----------------13-17p13-17p13-17p13----13-|
|--------15----------15----------------------15----|
|-----------14----14-------------------------------|
|--------------15----------------------------------|
|--------------------------------------------------|
|--------------------------------------------------|


|-18-p13----------------13-17p13-15----13----------|
|--------15----------15-------------17----17-15-13-|
|-----------14----14-------------------------------|
|--------------15----------------------------------|
|--------------------------------------------------|
|--------------------------------------------------|


|-17p13----16p13----16-16b(17)~~-20b(22)~~|-20p17-22b(25)r(22)b(25)\-|
|-------15-------15-------------x---------|-------------------------\|
|-----------------------------------------|--------------------------|      
|-----------------------------------------|--------------------------|
|-----------------------------------------|--------------------------|
|-----------------------------------------|--------------------------|


   Lead fill:
    
|---------------------------------------|
|-10p8------8---------------------------|
|------10-9---10-9p7-10-9-7----9p7------|
|---------------------------10-----10-8-|
|---------------------------------------|
|---------------------------------------|

|---------------------------------------|
|---------------------------------------|
|-10-9-7----9p7------7------------------|
|--------10-----10-8---10-8-7-10p8-7-5--|
|---------------------------------------|
|---------------------------------------|

|-----------------|
|-----------------|
|-7~~~~-----------|
|-----------------|
|-----------------|
|-----------------|


Solo 2 (Marty):

                           pb16          pb17 (dont realease previous bend)
|----------------------|--------------------------|
|----------------15-17-|-(17)r(16)b(17)-18r(17)15-|
|-17b(19)~~~~~~--------|--------------------------|
|--------------x\------|--------------------------|
|----------------------|--------------------------|
|----------------------|--------------------------|


|----------------------------|----------------------------------------|
|-18b(20)~~~~-18p15-18p15----|----------------------------------------|
|-------------------------17-|17b(19)--r(17)b(20)r(17)b(20)r(17)b(20)\|
|----------------------------|----------------------------------------|
|----------------------------|----------------------------------------|
|----------------------------|----------------------------------------|



|------15b(17)-|(17)~~~--13----------17-|--18~~~~~~---------13-15-17/-|
|--------------|------------17-15-------|-x--------13-15-17-----------|
|--------------|------------------14----|-----------------------------|
|--------------|------------------------|-----------------------------|
|--------------|------------------------|-----------------------------|
|--------------|------------------------|-----------------------------|

                                                pb21    pb21
|-19p16----------------------16-21b(22)r(21)-|-22r(21)-22~~~~|
|-------18----------------18-----------------|---------------|
|----------19-16----16h19--------------------|---------------|
|----------------18--------------------------|---------------|
|--------------------------------------------|---------------|
|--------------------------------------------|---------------|


Solo 3 (Marty):


|---------------------9-12p9----|
|----------------9h12--------15-|
|-------------10----------------|
|--------9h11-------------------|
|---8h11------------------------|
|-9-----------------------------|


|----------------------------|------------------------------------------|
|-15------------13-----------|-12/15p12------------------------------10-|
|----------------------------|--------------------14-11/12\11-----------|
|---12~~~~\(10)---10~~~~\(9)-|---------15-12\10/12------------13-12~~~--|
|----------------------------|------------------------------------------|
|----------------------------|------------------------------------------|


|-14-14/17p14-----------------10-10/14p11---------|
|-------------16------------7-------------13------|
|----------------17~~~(17)\------------------14~~-|
|-------------------------------------------------|
|-------------------------------------------------|
|-------------------------------------------------|


|--------------11-15-14-------------------------------|
|-----------13----------13-16-15----------------------|
|--------12----------------------14-17-16b(19)r(16)~~\|
|-/12h13----------------------------------------------|                     
|-----------------------------------------------------|
|-----------------------------------------------------|


|-14/17-14-14-14-15-11-11-14-10-10-10-11-8-8-10-6-|
|-------------------------------------------------|
|-------------------------------------------------|
|-------------------------------------------------|
|-------------------------------------------------|
|-------------------------------------------------|


|-6-6-8-5-5-6-5h6p5---5--------------------------|
|-------------------8---8-b(10)-8-8b(10)r(8)~~~--|
|------------------------------------------------|
|------------------------------------------------|
|------------------------------------------------|
|------------------------------------------------|

  |-----6-----|            |-------6-------|
|-----------------------------------------------------------|
|-7h8h10p8p7---7h8p7~~-/10-10h11h13p11p10----10h11p10~~-/13-|
|------------8----------------------------12----------------|
|-----------------------------------------------------------|
|-----------------------------------------------------------|
|-----------------------------------------------------------|

  |-------6-------|
|-------------------------------------14-15-17-17b(20)~~-|
|-13h15h16p15p13----15p13----13-15-16--------------------|
|----------------15-------15-----------------------------|
|--------------------------------------------------------|
|--------------------------------------------------------|
|--------------------------------------------------------|


Solo 4 (Marty):

                           |------5-----| |------5------|
|--------------------------------------14-15-14----------|
|-----------10-13p10-15-14-15----13-15----------15-13----|
|-----11-12-------------------14----------------------14-|
|-/12----------------------------------------------------|
|--------------------------------------------------------|
|--------------------------------------------------------|


|----------------------------------------------|
|-13/22\14-10-13p10\7-8-7h8p7\3--(3)b(4)r(3)---|
|--------------------------------------------5-|
|----------------------------------------------|
|----------------------------------------------|
|----------------------------------------------|


|-------------------------/15p11----------|
|-----7-10-9-10-7h8p7------------13-------|
|-7h8-----------------8-7-----------14-11-|
|-----------------------------------------|
|-----------------------------------------|
|-----------------------------------------|

                          |-------6-------|
|-------------------------------17-------------------------|
|-------13-16-------13-16-15/16----16\15-13----------------|
|-13/14-------13/14-------------------------16b(19)r(16)~~-|               
|----------------------------------------------------------|
|----------------------------------------------------------|
|----------------------------------------------------------|


|--------------------------------------------------|
|-10/13-13-13-13\12-12-12-12-/20-20-20-20\19-19-19-|
|--------------------------------------------------|
|--------------------------------------------------|
|--------------------------------------------------|
|--------------------------------------------------|

              |------6------| |---3---|          |--3---|              
|-------------------------------------------------------------------|
|-19\13-13-13-13h15p13--13h15-12h13p12--12h13p12-10h12p10--10h12p10-|
|---------------------14--------------14-----------------12---------|
|-------------------------------------------------------------------|
|-------------------------------------------------------------------|
|-------------------------------------------------------------------|
[ Tab from: http://www.guitartabs.cc/tabs/m/megadeth/hangar_18_tab_ver_3.html ]
  |-----6-----| |------6-----| |-------6-------| |----5----|
|---------------7-8-10-12p10-8-10p8-7-10g8p7-----7-8-7------|
|-8h10p8-7-8-10------------------------------10--------10-8-|
|-----------------------------------------------------------|
|-----------------------------------------------------------|
|-----------------------------------------------------------|
|-----------------------------------------------------------|

 |------6------|
|------10-----------------------------|-----------------|
|-7h10----10p7---7---7----------------|-----------------|
|--------------9---9---9b(11)--r(9)-7~|~~~(7)\----------|
|-------------------------------------|-----------------|
|-------------------------------------|-----------------|
|-------------------------------------|-----------------|


Solo 5 (Dave):


|-17-17-17-17-16-14-17-17-17-17-16-14-17-17-17-17-16-14-17-17-17-17-16-14-|
|-------------------------------------------------------------------------|
|-------------------------------------------------------------------------|
|-------------------------------------------------------------------------|
|-------------------------------------------------------------------------|
|-------------------------------------------------------------------------|


|-17-17-17-17-16-14------------------------------------------------------|
|------------------17-17-17-17-16-14-------------------------------------|
|-----------------------------------16-16-16-16-15-14--------14-----14---|
|----------------------------------------------------16-15-14--14h15--16-|
|------------------------------------------------------------------------|
|------------------------------------------------------------------------|


|-------------------------------------------------------------------------|
|-14----16----14----16-------------------14-14-17-14-17-19p17p14----14-17-|
|-14----16----14----16----14-14-16-16-17-------------------------18-------|
|----16----16----16----16-------------------------------------------------|
|-------------------------------------------------------------------------|
|-------------------------------------------------------------------------|


|-14-14-17-17-14-17-17-19p17p14----14-19b(20)r(19)-17----19b(21)~~~~~~|
|-------------------------------19--------------------19--------------|
|---------------------------------------------------------------------|
|---------------------------------------------------------------------|
|---------------------------------------------------------------------|
|---------------------------------------------------------------------|


Solo 6 (Marty):


|--------------------------|-21b(24)r(21)-21-20-21~~~~~----|
|-19b(21)r(19)-------------|-------------------x-----------|
|--------------18-21~~~~18-|----------------------------x\-|
|--------------------------|----------------------------x\-|
|--------------------------|-------------------------------|
|--------------------------|-------------------------------|

|-------------13h15----------------------------------------|
|-14p10-------------15p13----------------------------------|
|-------13-11-------------14-13/14h17-14h17p14h17p14\13/14-|
|----------------------------------------------------------|
|----------------------------------------------------------|
|----------------------------------------------------------|

                                                     ph
|---------------------------------------------------------------------|
|----14-17p14----17p14----------14-17p14----17p14----17b(19)~~~r(17)\-|
|-17----------17-------17-14-17----------17-------17------------------|
|---------------------------------------------------------------------|
|---------------------------------------------------------------------|
|---------------------------------------------------------------------|


Solo 7 (Dave):


|-21p17p14h17p14----------------------------------------------|
|----------------21p17p14h17p14-21p17p14h17p14----------------|
|----------------------------------------------21p17p14h17p14-|
|-------------------------------------------------------------|
|-------------------------------------------------------------|
|-------------------------------------------------------------|

   
|-------------------------------------------------------------|
|-------------------------------------------------------------|
|-21p17p14h17p14----------------------------------------------|
|----------------21p17p14h17p14-21p17p14h17p14----------------|
|----------------------------------------------21p17p14h17p14-|
|-------------------------------------------------------------|
                                                           

|-------------------------------------------------------------|
|-------------------------------------------------------------|
|----------------------------------------------14h21p14h17h21-|
|-------------------------------14h21p14h17h21----------------|
|----------------14h21p14h17h21-------------------------------|
|-14h21p14h17p21----------------------------------------------|


|----------------14h21p14\------------------|
|-14h21p14h17p21----------------------------|
|-------------------------------------------|
|-------------------------------------------|
|-------------------------------------------|
|--------------------------------2/19~~~----|


Solo 8 (Marty):

                                                            
|--------------------10p9-------14p10-|-13--10--------------------14tr(18)|
|-9-12-10-9--10p9--------12-10-9------|---14--13-14p10/13h14h16p14--------|
|----------11----11-9-----------------|-----------------------------------|
|-------------------------------------|-----------------------------------|
|-------------------------------------|-----------------------------------|
|-------------------------------------|-----------------------------------|

            |---3---|       |---3---|
|--------14-----------------------------------------------------------|
|-17b(19)---17-14--------19p14-17p14-19p14---------------17p14--------|
|-----------------16b(18)-----------------16b(18)r(16)p14-----16b(18)-|
|---------------------------------------------------------------------|
|---------------------------------------------------------------------|
|---------------------------------------------------------------------|

  |------5------|
|-14--------------------------------------14--------------------|
|----14h17h14-19p14-----------------14h17-----------------------|
|-------------------16b(18)r(16)-14----------17b(20)r(17)b(20)r~|
|---------------------------------------------------------------|
|---------------------------------------------------------------|
|---------------------------------------------------------------|


Solo 8 (Dave):

         |---5---| |----6----| |---5---| |----6----|
E |---2-|5-4-2-4-2-----------5-8-7-5-7-5-----------8-|
B |-----|----------5-4-2-5-x-------------8-7-5-8-x---|
G |-----|--------------------------------------------|
D |-----|--------------------------------------------|
A |-----|--------------------------------------------|
E |-----|--------------------------------------------|

    |-----5----| |------6------| |------5-----| |------6-------|
E |-11-10-8-10-8--------------11-14-13-11-13-11---------------14-|
B |--------------11-10-8-10-x-------------------14-13-11-14-x----|
G |--------------------------------------------------------------|
D |--------------------------------------------------------------|
A |--------------------------------------------------------------|
E |--------------------------------------------------------------|

    |------5-----| |-------6------| |------5-----| |-------6-------|
E |-17-16-14-16-14---------------17-20-19-17-19-17---------------20-|
B |----------------17-16-14-16-x-------------------20-19-17-19-x----|
G |-----------------------------------------------------------------|
D |-----------------------------------------------------------------|
A |-----------------------------------------------------------------|
E |-----------------------------------------------------------------|

    |-----5------|                 *
E |-23-22-20-22-20--------------x-/8-9-11-13-14-16-18-20-22-24-24-24-24|
B |-----------------23-22-x\-------------------------------------------|
G |--------------------------------------------------------------------|
D |--------------------------------------------------------------------|
A |--------------------------------------------------------------------|
E |--------------------------------------------------------------------|

   *(tremelo pick as you slide up the neck)

E |-24b(26)-24b(26)-24b(26)-24b(26)-|-24b-24b-24b-24b-24b-24b-24b-24b-|
B |---------------------------------|---------------------------------|
G |---------------------------------|---------------------------------|
D |---------------------------------|---------------------------------|
A |---------------------------------|---------------------------------|
E |---------------------------------|---------------------------------|


E |-24b(26)=========================|===============================\-|
B |---------------------------------|---------------------------(22)\-|
G |---------------------------------|------------------catch b string-|
D |---------------------------------|---------------------------------|
A |---------------------------------|---------------------------------|
E |---------------------------------|---------------------------------|

Cast (In order of appearance):

b  - bend
~  - vibrato
pb - prebend
r  - release bend
/\ - slides (self explanatory)
h  - hammer on
p  - pull off
x  - muffled note (string dampening)
g  - grace note
ph - pinch harmonic
tr - trill 
=  - tremelo pick
Comments