Megadeth - Five Magics Chords & Tabs

 

Five Magics Chords & Tabs

Megadeth Chords & Tabs

Version: 1 Type: Tab 0 ratings
1 star 2 stars 3 stars 4 stars 5 stars
comments

Five Magics Tab

Five Magics
Transcribed by Christopher Heer (cdheer@geocities.com)
Standard Tuning

Intro
------------------------------------------------------------------------
------------------------------------------------------------------------
------------------------------------------------------------------------
------------------------------------------------------------------------
-7-5-----8---7-5-----8---7-5-----8---7-5-----5--------------------------
-----7-5-6-------7-5-6-------7-5-6-------7-5-3--------------------------

Interlude
------------------------------------------------------------------------
---------------------------------------------8--------------------------
--9---8-------------------9---8----------------------------------------
----------9-----------------------9-------------------------------------
-------------10---9------------------10---------------------------------
----------------------11------------------9-----------------------------

Interlude
------------------------------------------------------------------------
------------------------------------------------------------------------
-------------0------------------11----------------0------------------11~
-----5-----8---8------9------10----10-----5-----8---8------9------10----
---7-----7---------10-----12------------7-----7---------10-----12-------
-0-----0---------0------0-------------0-----0---------0------0----------
[ Tab from: http://www.guitartabs.cc/tabs/m/megadeth/five_magics_tab.html ]
Verse
------------------------------------------------------------------------
------------------------------------------------------------------------
----------------------------------------4-------------------------------
-3-----------------------------2--------4---------------------3---------
-3--3-3-3-3-3-3-3-3-3-3---2----2--------2----2------------2---3---------
-1--1-1-1-1-1-1-1-1-1-1-0---00-0----0-0----0-0-00-3~~---0---3-1---------
    
Interlude
------------------------------------------------------------------------
------------------------------------------------------------------------
------------------------------------------------------------------------
-----22---------44---5--------------------------------------------------
---2------3---4------5--------------------------------------------------
-0------1---2------3----------------------------------------------------

Bridge
------------------------------------------------------------------------
------------------------------------------------------------------------
-----99-----------1111-----12-------------------------------------------
---9------10---11-------------------------------------------------------
-7------8----9---------10-----------------------------------------------
------------------------------------------------------------------------

Pre-Chorus
------------------------------------------------------------------------
------------------------------------------------------------------------
------------------------------------------------------------------------
------------------------------------------------------------------------
-9-7-5-4-2---9-7-5-4-3---9-7-5---3-4---9-7-5-7-5------------------------
-7-5-3-2-0---7-5-3-2-1---7-5-3-0-1-2---7-5-3-5-3------------------------

Chorus
-----------------------------------------------------------------------------------
-----------------------------------------------------------------------------------
-----------------------------------------------------------------------------------
-2-----2-------------3-----3-------------------------------------------------------
-2-----2-----9-7-5-4-3-----3-----9-7-5-4-3-4-----4-----9-7-5-7-5-----5-----9-7-5-4-
-0-0-0-0-0-0-7-5-3-2-1-1-1-1-1-1-7-5-3-2-1-2-2-2-2-2-2-7-5-3-5-3-3-3-3-3-3-7-5-3-2-

Bridge
------------------------------------------------------------------------
------------------------------------------------------------------------
------------------------------------------------------------------------
-3-----------------------------2------------------------------3---------
-3-------------------------2---2--------------------------2---3---------
-1---1-1-1-1-1-1-1-1-1-1-0---0-0----0-000-000-000-000-000---0-1---------

Shred Interlude
------------------------------------------------------------------------
------------------------------------------------------------------------
------------------------------------------------------------------------
-----------------------9---8--------------------------------------------
-----------------------7---6-9-8----------------------------------------
-0000770000660000770000------7-6----------------------------------------
Comments