Megadeth - Fff Chords & Tabs

 

Fff Chords & Tabs

Megadeth Chords & Tabs

Version: 1 Type: Tab 0 ratings
1 star 2 stars 3 stars 4 stars 5 stars
comments

Fff Tab

FFF
Transcribed by Christopher Heer
Standard Tuning

Intro (in this riff it's the bass 
line which modulates from B to G)
-------------------------------
-------------------------------
-4-4-----4-4-----4-4-----4-4---	
-4-4-----4-4-----4-4-----4-4---
-2-2---0-2-2---0-2-2---0-2-2---
-------------------------------

---------------------------------
---------------------------------
---4-4-----4-4-----4-4-----4-4---	(2x)
---4-4-----4-4-----4-4-----4-4---
-0-2-2---0-2-2---0-2-2---0-2-2---
---------------------------------

------------------------------------------------
------------------------------------------------
---2-2-----2-2-----2-2-----2-2------------------
---2-2-----2-2-----2-2-----2-2-----4--------4---
-0-0-0---0-0-0---0-0-0---0-0-0---0-4--------4---
-----------------------------------2--------2---

Verse
-----------------------------------------------------------------
-----------------------------------------------------------------
-4-4-----4-4---------------------4-4-----4-4---------------------
-4-4-----4-4---0-5-5-----5-5-----4-4-----4-4---0-5-5-------------
-2-2---0-2-2-----5-5-----5-5---0-2-2---0-2-2-----5-5---5---------
-----------------3-3---0-3-3---------------------3-3-----0-2-3-5-

---------------------------------------------------------------
---------------------------------------------------------------
-4-4-----4-4---------------------2-2-----2-2-----2-2-----2-2---
-4-4-----4-4---0-5-5-----5-5-----2-2-----2-2-----2-2-----2-2---
-2-2---0-2-2-----5-5-----5-5---0-0-0---0-0-0---0-0-0---0-0-0---
-----------------3-3---0-3-3-----------------------------------

Pre Chorus
---------------------------------------------------------------
---------------------------------------------------------------
-4-4-----4-4---0-----------------4-4-----4-4---0-------5-4-3-2-
-2-2---0-2-2-----5-5-----5-5---0-2-2---0-2-2-----5-5-----------
-----------------3-3---0-3-3---------------------3-3-----------
---------------------------------------------------------------
[ Tab from: http://www.guitartabs.cc/tabs/m/megadeth/fff_tab.html ]
---------------------------------------------------------------
---------------------------------------------------------------
-4-4-----4-4---0-----------------2-2-----2-2-----2-2-----2-2---
-2-2---0-2-2-----5-5-----5-5---0-0-0---0-0-0---0-0-0---0-0-0---
-----------------3-3---0-3-3-----------------------------------
---------------------------------------------------------------


Chorus
-------------------------------
-------------------------------
-4-4-----4-4-----4-4-----4-4---	
-4-4-----4-4-----4-4-----4-4---
-2-2---0-2-2---0-2-2---0-2-2---
-------------------------------

---------------------------------
---------------------------------
---4-4-----4-4-----4-4-----4-4---	(2x)
---4-4-----4-4-----4-4-----4-4---
-0-2-2---0-2-2---0-2-2---0-2-2---
---------------------------------

------------------------------------------------
------------------------------------------------
---2-2-----2-2-----2-2-----2-2------------------
---2-2-----2-2-----2-2-----2-2-----4--------4---
-0-0-0---0-0-0---0-0-0---0-0-0---0-4--------4---
-----------------------------------2--------2---


Solo Rhythm
-----------------------------------------------
-----------------------------------------------
-4-4-----4-4-----5-5-----5-5-----4-4-----4-4---
-4-4-----4-4-----5-5-----5-5-----4-4-----4-4---
-2-2---0-2-2---0-3-3---0-3-3---0-2-2---0-2-2---
-----------------------------------------------

-----------------------------------------------
-----------------------------------------------
---5-5-------------4-4-----4-4-----5-5-----5-5-
---5-5-------------4-4-----4-4-----5-5-----5-5-
-0-3-3---5---------2-2---0-2-2---0-3-3---0-3-3-
-----------0-2-3-5-----------------------------

---------------------------------
---------------------------------
---------------------------------
---4-4-----4-4-----5-5-----5-5---
---4-4-----4-4-----5-5-----5-5---
-0-2-2---0-2-2---0-3-3---0-3-3---


Solo Rhythm #2
----------------------------------
----------------------------------
----------------------------------
----------------------------------
-22222222333333332222222233333333-
----------------------------------

-----------------------------------------------------------------
-----------------------------------------------------------------
---4-4-----4-4-----5-5-----5-5-----------------------------------
---4-4-----4-4-----5-5-----5-5-----4-4-----4-4-----5-5-----5-5---
-0-2-2---0-2-2---0-3-3---0-3-3-----4-4-----4-4-----5-5-----5-5---
---------------------------------0-2-2---0-2-2---0-3-3---0-3-3---
Comments