Megadeth - Enter The Arena Chords & Tabs

 

Enter The Arena Chords & Tabs

Megadeth Chords & Tabs

Version: 2 Type: Tab 0 ratings
1 star 2 stars 3 stars 4 stars 5 stars
comments

Enter The Arena Tab

E|--------------------------------------------------------------|
B|--------------------------------------------------------------|
G|--------------------------------------------------------------|
D|--------------------6--(6)--------------------------8--(8)----|
A|-3-3----------------6--(6)-------3-3----------------8--(8)----|
E|-1-1-----------------------------1-1--------------------------|


E|--------------------------------------------------------------|
B|--------------------------------------------------------------|
G|--------------------------------------------------------------|
D|--------------------6--(6)-----------------------------8--(8)-|
A|-3-3----------------6--(6)-------3-3-------------------8--(8)-|
E|-1-1-----------------------------1-1--------------------------|


E|--------------------------------------------------------------|
B|--------------------------------------------------------------|
G|--------------------------------------------------------------|
D|--------------------6--(6)-----------------------------8--(8)-|
A|-3-3----------------6--(6)-------3-3-------------------8--(8)-|
E|-1-1-----------------------------1-1--------------------------|

[ Tab from: http://www.guitartabs.cc/tabs/m/megadeth/enter_the_arena_tab_ver_2.html ]
E|--------------------------------------------------------------|
B|--------------------------------------------------------------|
G|--------------------------------------------------------------|
D|--------------------6--(6)-----------------------------8--(8)-|
A|-3-3----------------6--(6)-------3-3-------------------8--(8)-|
E|-1-1-----------------------------1-1--------------------------|


E|--------------------------------------------------------------|
B|--------------------------------------------------------------|
G|--------------------------------------------------------------|
D|-----------6---------------8--------------6--------------6--8-|
A|-3-3-------6--3-3----------8--3-3---------6--3-3---------4--6-|
E|-1-1-----------1-1------------1-1------------1-1--------------|


E|--------------------------------------------------------------|
B|--------------------------------------------------------------|
G|--------------------------------------------------------------|
D|-----------6---------------8--------------6--------------6--8-|
A|-3-3-------6--3-3----------8--3-3---------6--3-3---------4--6-|
E|-1-1-----------1-1------------1-1------------1-1--------------|


E|------------|
B|------------|
G|------------|
D|------------|
A|-3-3--------|
E|-1-1--------|
Comments