Megadeth - Duke Nukem Theme Chords & Tabs

 

Duke Nukem Theme Chords & Tabs

Megadeth Chords & Tabs

Version: 1 Type: Tab 0 ratings
1 star 2 stars 3 stars 4 stars 5 stars
comments

Duke Nukem Theme Tab

DUKE NUKEM - MEGADEATH

BY KINTARO, ZAFRIRIM RULES.



E------------------|
B------------------|
G------------------|
D--222-222-222-333-|  (x2)      
A--222-222-222-333-|  
E--000-000-000-111-|     

E-----------------------------------------------               ------|
B-------------- (3 times) ----------------------               ------|
G-----------------------------------------5-5-5-               -5-55-|
D--2-5-7------7-9------9-10---------------5-5-5-  4th time ->  -5-55-|
A--2-5-7------7-9------9-10-----3-2-------3-5-3-               -5-35-|
E--0-3-5-00-0-5-7-00-0-7--8-000-----5-3-5-------               ------|
      PM .. .     .. .      ...

E------------------|
B------------------|
G------------------|
D--333-333-333-333-|
A--333-333-333-333-|
E--111-111-111-111-|
[ Tab from: http://www.guitartabs.cc/tabs/m/megadeth/duke_nukem_theme_tab.html ]
E--------------------------------------|----------------------------------|
B--------------------------------------|----------------------------------|
G--------------------------------------|----------------------------------|
D--------------------------------------|----------------------------------|
A------2------0------2------0----------|-----2------0------2--------------|
E--0-0-0--0-0-0--0-0-0--0-0-0--0-0-000-|-0-0-0--0-0-0--0-0-0--0-0-000-000-|
 PM. .    . .    . .    . .    . . ...   . .    . .    . .    . . ... ...

E--------------------------------------|-----------------------------------|
B--------------------------------------|-----------------------------------|
G--------------------------------------|-----------------------------------|
D--------------------------------------|-----------------------------------|
A------2------0------2------0----------|-----2------0----------------------|
E--0-0-0--0-0-0--0-0-0--0-0-0--0-0-000-|-0-0-0--0-0-0--0-0-000-000-000-000-|
 PM. .    . .    . .    . .    . . ...   . .    . .    . . ... ... ... ...



E------------------------------------------------------|
B------------------------------------------------------|
G--4---5--2-2-------4b>(1/2)= up , (1/2)
Comments