Megadeth - Dread And The Fugitive Mind Chords & Tabs

 

Dread And The Fugitive Mind Chords & Tabs

Megadeth Chords & Tabs

Version: 3 Type: Tab 0 ratings
1 star 2 stars 3 stars 4 stars 5 stars
comments

Dread And The Fugitive Mind Tab

   
Album is the world needs a hero
standard tuning              MEGADETH
                    DREAD & THE FUGITIVE MIND                      moderately fast rock=169

"verse"          Let me introduce myself.               I'm a social disease
:---------------------------------------------------------------------------:
:---------------------------------------------------------------------------:
:---------------------------------------------------------------------------:
:----------5---4-----------------------------------5---4--------------------:
:--2-------3-0-2-2-------------------------2-------3-0-2-2------------------:
:--0-0-2-3-------0-------------------------0-0-2-3-------0------------------:
     pm***   *                               *****   *  
                I've come for your wealth             and leave you on your
:---------------------------------------------------------- knees. ---------:
:---------------------------------------------------------------------------:
:---------------------------------------------------------------------------:
:---------5---4-----------------------------------5---4---------------------:
:-2-------3-0-2-2-------------------------2-------3-0-2-2-------------------:
:-0-0-2-3-------0-------------------------0-0-2-3-------0-------------------:
    pm***   *                               *****   *
                 No time for feeling sorry.                I got here on my 
:------------------------------------------------------------ own. ---------:
:---------------------------------------------------------------------------:
:---------------------------------------------------------------------------:
:---------5---4-------------------------------------5---4-------------------:
:-2-------3-0-2-2---------------------------2-------3-0-2-2-----------------:
:-0-0-2-3-------0---------------------------0-0-2-3-------0-----------------:
    pm***   *                                 *****   *
                  I won't ask for mercy.              I choose to walk alone.
:---------------------------------------------------------------------------:
:---------------------------------------------------------------------------:
:---------------------------------------------------------------------------:
:----------5---4---------------------------------5---4----------------------:
:--2-------3-0-2-2-----------------------2-------3-0-2-2--------------------:
:--0-0-2-3-------0-----------------------0-0-2-3-------0--------------------:
     pm***   *                             *****   *
"pre-chorus:      Oo, what's yours is mine.
:-----------------------------------------------------:
:-----------------------------------------------------:
:-----------------------------------------------------:
:--7-------5-------7-------5-------4-------5-------4--:
:--7-------7-------7-------7-------5-------5-------5--:
:----0---0---0---0---0---0---0---0---0---0---0---0----:
     pm***   *   *   *   *   *   *   *   *   *   *
  What's mine is mine,    too,            If you shake my hand, better count
:----------------------------------------------------------------:
:----------------------------------------------------------------:
:----------------------------------------------------------------:
:--(4)------5------2------0------2------0-------5------4------7--:
:--(5)------5------3------3------3------3-------5------5------6--:
:------0--0---0--0---0--0---0--0---0--0----0--0---0--0---0--0----:
       pm**   *  *   *  *   *  *   *  *    *  *   *  *   *  *
"chorus"  your fingers.     What if I do get caught?     What if there is no 
:------------------------------------------------------------------ judgemt :
:---------------------------------------------------------------------------:
:---------------------------------------------------------------------------:
:--(7)------5----------9-----9-----9-----9-----9-----9-----9-----9-----9----:
:--(6)------6------5-7---5-7---5-7---5-7---5-7-----7-----7-----7-----7-----7:
:------0--0---0--0-------------------------------8-----8-----8-----8-----8--:
       pm**   *  *
     If I'm right, I lose nothing    If you're right, I lose it all.
:---------------------------------------------------------------------:
:---------------------------------------------------------------------:
:---------------------------------------------------------------------:
:--9-----9-----9-----9-----9-----9-----4-----5-----4-----5-----4------:
:------7-----7-----7-----7-----7---2-6---2-6---2-6---2-6---2-6---6-5--:
:----5-----5-----5-----5-----5----------------------------------------:

      I ought to get caught      because I'm doing something wicked
:-------------------------------------------------------------- :
:---------------------------------------------------------------:
:---------------------------------------------------------------:
:----------9-----9-----9-----9-----9-----9-----9-----9-----9----:
:------5-7---5-7---5-7---5-7---5-7-----7-----7-----7-----7-----7:
:------------------------------------8-----8-----8-----8-----8--:

I'm guilty, haunted by my fears, and the only consequences
:----------------------------------------------------:
:----------------------------------------------------:
:----------------------------------------------------:
:--9-----9-----9-----9-----9-----9-----4-----5-------:
:------7-----7-----7-----7-----7---2-6----2----6-2---:
:----5-----5-----5-----5-----5-----------------------:

are dread and the fugitive mind.
:---------------------------------:
:---------------------------------:
:---------------------------------:
:----4-----5-----4-----5---4------:
:--6---2-6---2-6---2-6---2---6-2--:
:------------------------------0--:
[ Tab from: http://www.guitartabs.cc/tabs/m/megadeth/dread_and_the_fugitive_mind_tab_ver_3.html ]
                You built walls to protect you         so no one will in fect
:-------------------------------------------------------------- you --------:
:---------------------------------------------------------------------------:
:---------------------------------------------------------------------------:
:----------5---4-----------------------------------5---4--------------------:
:--2-------3-0-2-2-------------------------2-------3-0-2-2------------------:
:--0-0-2-3-------0-------------------------0-0-2-3-------0------------------:
     pm***   *                               *****   *  
                 Pursued by those out there              that vanish in thin
:--------------------------------------------------------------- air, ------:
:---------------------------------------------------------------------------:
:---------------------------------------------------------------------------:
:----------5---4-----------------------------------5---4--------------------:
:--2-------3-0-2-2-------------------------2-------3-0-2-2------------------:
:--0-0-2-3-------0-------------------------0-0-2-3-------0------------------:
     pm***   *                               *****   *  
                  come a long way to find                what you really left
:------------------------------------------------------------- behind ------:
:---------------------------------------------------------------------------:
:---------------------------------------------------------------------------:
:----------5---4-----------------------------------5---4--------------------:
:--2-------3-0-2-2-------------------------2-------3-0-2-2------------------:
:--0-0-2-3-------0-------------------------0-0-2-3-------0------------------:
     pm***   *                               *****   *  
                 You don't know when the end is,         but it's coming fast
:---------------------------------------------------------------------------:
:---------------------------------------------------------------------------:
:---------------------------------------------------------------------------:
:----------5---4-----------------------------------5---4--------------------:
:--2-------3-0-2-2-------------------------2-------3-0-2-2------------------:
:--0-0-2-3-------0-------------------------0-0-2-3-------0------------------:
     pm***   *                               *****   *  
                   Oo, what's yours is mine.
:-----------------------------------------------------:
:-----------------------------------------------------:
:-----------------------------------------------------:
:--7-------5-------7-------5-------4-------5-------4--:
:--7-------7-------7-------7-------5-------5-------5--:
:----0---0---0---0---0---0---0---0---0---0---0---0----:
     pm***   *   *   *   *   *   *   *   *   *   *
    What's mine is mine,  too.              If you shake my hand better count
:----------------------------------------------------------------:
:----------------------------------------------------------------:
:----------------------------------------------------------------:
:--(4)------5------2------0------2------0-------5------4------7--:
:--(5)------5------3------3------3------3-------5------5------6--:
:------0--0---0--0---0--0---0--0---0--0----0--0---0--0---0--0----:
       pm**   *  *   *  *   *  *   *  *    *  *   *  *   *  *
your fingers.     What if I do get caught?     What if there is no 
:------------------------------------------------------------------ judgemt :
:---------------------------------------------------------------------------:
:---------------------------------------------------------------------------:
:--(7)------5----------9-----9-----9-----9-----9-----9-----9-----9-----9----:
:--(6)------6------5-7---5-7---5-7---5-7---5-7-----7-----7-----7-----7-----7:
:------0--0---0--0-------------------------------8-----8-----8-----8-----8--:
       pm**   *  *


 If I'm right, I lose nothing    If you're right, I lose it all.
:---------------------------------------------------------------------:
:---------------------------------------------------------------------:
:---------------------------------------------------------------------:
:--9-----9-----9-----9-----9-----9-----4-----5-----4-----5-----4------:
:------7-----7-----7-----7-----7---2-6---2-6---2-6---2-6---2-6---6-5--:
:----5-----5-----5-----5-----5----------------------------------------:

      I ought to get caught      because I'm doing something wicked
:-------------------------------------------------------------- :
:---------------------------------------------------------------:
:---------------------------------------------------------------:
:----------9-----9-----9-----9-----9-----9-----9-----9-----9----:
:------5-7---5-7---5-7---5-7---5-7-----7-----7-----7-----7-----7:
:------------------------------------8-----8-----8-----8-----8--:

I'm guilty, haunted by my fears, and the only consequences
:----------------------------------------------------:
:----------------------------------------------------:
:----------------------------------------------------:
:--9-----9-----9-----9-----9-----9-----4-----5-------:
:------7-----7-----7-----7-----7---2-6----2----6-2---:
:----5-----5-----5-----5-----5-----------------------:

are dread and the fugitive mind
:---------------------------------:
:---------------------------------:
:---------------------------------:
:----4-----5-----4-----5---4------:
:--6---2-6---2-6---2-6---2---6-2--:
:---------------------------------:


:---------------------:
:---------------------:
:---------------------:
:---------------------: x8
:------------------2--:
:--0-0-0-0-2-2-3-3-0--:
   pm***************

:--------------------:--------------------:--------------------:
:--------------------:--------------------:--------------------:
:--------------------:--------------------:--------------------:
:---------------9----:--9^10----9---------:--------------9-----:
:--5------7----------:----------------7---:-------7------------:
:--------------------:--------------------:--8~~~--------------:
:                        H                
:
:
:--------------------:--------------------:--------------------:
:--------------------:--------------------:--------------------:
:--------------------:--------------------:--------------------:
:--------------------:--------------------:--------------------:
:------------------2-:------------------2-:------------------2-:
:--0-0-0-0-2-2-3-3-0-:--0-0-0-0-2-2-3-3-0-:--0-0-0-0-2-2-3-3-0-:
   pm* * * * * * * *    * * * * * * * * *    * * * * * * * * *

:--------------------:--------------------:--------------------:
:--------------------:--------------------:--------------------:
:--------------------:--------------------:--------------------:
:--9^10---9----------:-------------9------:--9^10---9----------:
:---------------7----:-------7------------:--------------7\----:
:--------------------:--5-----------------:--------------------:
:   H                                          H         sl
:
:
:--------------------:--------------------:--------------------:
:--------------------:--------------------:--------------------:
:--------------------:--------------------:--------------------:
:--------------------:--------------------:--------------------:
:------------------2-:------------------2-:------------------2-:
:--0-0-0-0-2-2-3-3-0-:--0-0-0-0-2-2-3-3-0-:--0-0-0-0-2-2-3-3-0-:
   pm* * * * * * * *    * * * * * * * * *    * * * * * * * * *

:--------------------:--------------------:
:--------------------:--------------------:
:--------------------:--------------------:
:-------------4------:--4^5---4-----------:
:--2----6------------:--------------6-----:
:--------------------:--------------------:
:                        H
:
:
:--------------------:--------------------:
:--------------------:--------------------:
:--------------------:--------------------:
:--------------------:--------------------:
:------------------2-:------------------2-:
:--0-0-0-0-2-2-3-3-0-:--0-0-0-0-2-2-3-3-0-:
   pm* * * * * * * *    * * * * * * * * *

:--------------------:--------------------:--------------------:
:--------------------:--------------------:--------------------:
:--------------------:--------------------:--------------------:
:---------------9----:--9^10----9---------:--------------9-----:
:--5------7----------:----------------7---:-------7------------:
:--------------------:--------------------:--8~~~--------------:
:                        H                
:
:
:--------------------:--------------------:--------------------:
:--------------------:--------------------:--------------------:
:--------------------:--------------------:--------------------:
:--------------------:--------------------:--------------------:
:------------------2-:------------------2-:------------------2-:
:--0-0-0-0-2-2-3-3-0-:--0-0-0-0-2-2-3-3-0-:--0-0-0-0-2-2-3-3-0-:
   pm* * * * * * * *    * * * * * * * * *    * * * * * * * * *

:--------------------:--------------------:--------------------:
:--------------------:--------------------:--------------------:
:--------------------:--------------------:--------------------:
:--9^10---9----------:-------------9------:--9^10---9----------:
:---------------7----:-------7------------:--------------7\----:
:--------------------:--5-----------------:--------------------:
:   H                                          H         sl
:
:
:--------------------:--------------------:--------------------:
:--------------------:--------------------:--------------------:
:--------------------:--------------------:--------------------:
:--------------------:--------------------:--------------------:
:------------------2-:------------------2-:------------------2-:
:--0-0-0-0-2-2-3-3-0-:--0-0-0-0-2-2-3-3-0-:--0-0-0-0-2-2-3-3-0-:
   pm* * * * * * * *    * * * * * * * * *    * * * * * * * * *

:--------------------:--------------------:
:--------------------:--------------------:
:--------------------:--------------------:
:-------------4------:--4^5---4-----------:
:--2----6------------:--------------6-----:
:--------------------:--------------------:
:                        H
:
:
:--------------------:--------------------:
:--------------------:--------------------:
:--------------------:--------------------:
:--------------------:--------------------:
:------------------2-:------------------2-:
:--0-0-0-0-2-2-3-3-0-:--0-0-0-0-2-2-3-3-0-:
   pm* * * * * * * *    * * * * * * * * *



MEGADETH IS:
Dave Mustaine-guitar/vocals
David Ellefson-bass
Jimmy Degrasso-drums
Al Pitrelli-guitar/backing vocals
Comments