Megadeth - Dread And The Fugitive Mind Chords & Tabs

 

Dread And The Fugitive Mind Chords & Tabs

Megadeth Chords & Tabs

Version: 2 Type: Tab 0 ratings
1 star 2 stars 3 stars 4 stars 5 stars
comments

Dread And The Fugitive Mind Tab

Song   : Dread And The Fugitive Mind
Artist : Megadeth
Album  : The World Needs A Hero
-------------------------------------------------------------------------------

Tabbed by: Silent Assasin
Email: heartbreakkid_2010 @ yahoo.com

Tuning: 1/2 Step Down.


Play this part 8 times :
eb|---------------------------------------------------------------------------|
Bb|---------------------------------------------------------------------------|
Gb|---------------------------------------------------------------------------|
Db|----------5-4--------------------------------------------------------------|
Ab|--2---4-5-3-2-2------------------------------------------------------------|
Eb|--0-0-2-3--0--0------------------------------------------------------------|

When Mustaine goes " Let me introduce myself "...

Pre chorus : (i.e. " Oohh what's your's is mine..........fingers.")

eb|---------------------------------------------------------------------------|
Bb|---------------------------------------------------------------------------|
Gb|---------------------------------------------------------------------------|
Db|--9---9-9-----9-9-----9-9------7-----7-7-----7-7-----7-7-------------------|
Ab|--7-7-7-7-7-7-7-7-7-7-7-7-7-7--5-5-5-5-5-5-5-5-5-5-5-5-5-5-5---------------|
Eb|---------------------------------------------------------------------------|

eb|---------------------------------------------------------------------------|
Bb|---------------------------------------------------------------------------|
Gb|---------------------------------------------------------------------------|
Db|---------------------------------------------------------------------------|
Ab|--5---5-5-----5-5-----5-5------7-------8-8-8-7-7-7-------------------------|
Eb|--3-3-3-3-3-3-3-3-3-3-3-3-3-3--5-5-5-5-6-6-6-5-5-5-------------------------|

Chorus : Play this twice ( "What if I do get caught......Fugitive Mind.")

eb|--------------------------------------------------------------------------------|
Bb|--------------------------------------------------------------------------------|
Gb|--------------------------------------------------------------------------------|
Db|-0---9--0---9--0---9--0---9--0---9------9----9---9---9---9---9---9---9---9---9--|
Ab|---7------7------7------7------7------7----7----7---7---7---7---7---7---7---7---|
Eb|------------------------------------8-----8----8---8---8---5---5---5---5---5----|

eb|----------------------------------|
Bb|----------------------------------|
Gb|----------------------------------|
Db|----------5----------5------------|
Ab|----6-9-9------6-9-9-----9-6------|
Eb|-7-----7-----7----7----7----------|


Pre-Solo Riffs (with the double bass drums) : Play this 8 times
[ Tab from: http://www.guitartabs.cc/tabs/m/megadeth/dread_and_the_fugitive_mind_tab_ver_2.html ]
eb|---------------------------------|
Bb|---------------------------------|
Gb|---------------------------------|
Db|---------------------------------|
Ab|-2222-4455-2---------------------|
Eb|-0000-2233-0---------------------|


Then : (twice each)

eb|-------------------------------------------------------------------------------------------------|
Bb|-------------------------------------------------------------------------------------------------|
Gb|-------------------------------------------------------------------------------------------------|
Db|0---9--0---7--0--5-0---7--5-0----------9-----7-----5-----7--5-----------9-----7-----5-----7-5----|
Ab|--7------7-----7-----7---------7-----7-----7-----7-----7--------7-----7-----7-----7-----7-------7|
Eb|-----------------------------------8-----8-----8-----8--------8-----5-----5-----5-----5-------5--|


eb|---------------------------------|
Bb|---------------------------------|
Gb|---------------------------------|
Db|---------5---------5-------------|
Ab|---6-9-9-----6-9-9-----9---6-----|
Eb|-7----7----7----7----7---7-------|


Guitar Solo start :

eb|--------------------------------|
Bb|--------------------------------|
Gb|--------------------------------|
Db|----------5/7-5-----------------|
Ab|------6-9--------9-7---9--------|
Eb|---7----------------------------|

That's all I could tab of the solo...I'll try the rest and let you know soon.

Solo Rhythm : (4 times)

eb|--------------------------------------------------------------------------------------|
Bb|--------------------------------------------------------------------------------------|
Gb|--------------------------------------------------------------------------------------|
Db|--9-----------------------9-----------------------------------------------------------|
Ab|--7-7-7-7-7-7-7-7-7-7-7-7-7--10----------------------10-------------------------------|
Eb|------------------------------8-8-8-8-8-8-8-8-8-8-8-8-8-------------------------------|

eb|--------------------------------------------------------------------------------------|
Bb|--------------------------------------------------------------------------------------|
Gb|--------------------------------------------------------------------------------------|
Db|--------------------------------------------------------------------------------------|
Ab|-7-----------------------7--9-------------10----10--9---------------------------------|
Eb|-5-5-5-5-5-5-5-5-5-5-5-5-5--7-7-7-7-7-7-7--8-8-8-8--7-7-7-----------------------------|



(Last time)

eb|------------------------------|
Bb|------------------------------|
Gb|------------------------------|
Db|--4-------------5-----4-------|
Ab|--2-2-2-2-2-2-2-3-3-3-2-2-2---|
Eb|------------------------------|


Final Riff : (4 times)

eb|----------------------------------------------|
Bb|----------------------------------------------|
Gb|----------------------------------------------|
Db|------------------------5-4----------5-4------|
Ab|--2----4-5-2---2----4-5-3-2-2----4-5-3-2-2----|
Eb|--0--0-2-3-0---0--0-2-3--0--0--0-2-3--0--0----|


P.S. If someone can get the solo b4 me...plz mail it to me..THANX!
Comments