Megadeth - Dread And The Fugitive Mind Chords & Tabs

 

Dread And The Fugitive Mind Chords & Tabs

Megadeth Chords & Tabs

Version: 1 Type: Tab 0 ratings
1 star 2 stars 3 stars 4 stars 5 stars
comments

Dread And The Fugitive Mind Tab

Dread And The Fugitive Mind
By: Megadeth
Tabbed by: DxL - MelvinTheLlama@aol.com - AIM: dxlogan187 - MSN: dxlogan316@hotmail.com

Intro & Verse Riff
....PM------| ..PM 
-------------------------|
-------------------------|
-----------5---4---------|
-2-----4---5---4--2------|
-2-----4---3---2--2------|
-0--0--2-0---0----0------|
Pre Chorus
...PM--|...PM--|..PM--|..PM--|...PM--|..PM--|...PM--|
------------------------------------------------|
------------------------------------------------|
------------------------------------------------|
-7-----5-----7-----5-----4-----5-----4-----5----|
-7-----7-----7-----7-----5-----5-----5-----5----|
---0-0---0-0---0-0---0-0---0-0---0-0---0-0------|
..
...PM--|...PM--|..PM--|..PM--|...PM--|..PM--|...PM--|
------------------------------------------------|
------------------------------------------------|
------------------------------------------------|
-2-----0-----2-----0-----5-----4-----7-----5----|
-3-----3-----3-----3-----5-----5-----6-----6----|
---0-0---0-0---0-0---0-0---0-0---0-0---0-0------| 
Chorus
Light PM--------------------------------------------------|
------------------------------------------------|
------------------------------------------------|
--------4--------4---------4--------4--------4--|
--0--2-----0--2------0--2-----0--2----0---2-----|
------------------------------------------------|
------------------------------------------------|

Light PM--------------------------------------------------|
------------------------------------------------|
------------------------------------------------|
--------4--------4---------4--------4--------4--|
-----2--------2---------2--------2--------2-----|
--3--------3---------3--------3-------3---------|
------------------------------------------------|

Light PM--------------------------------------------------|
------------------------------------------------|
------------------------------------------------|
--------4--------4---------4--------4--------4--|
-----2--------2---------2--------2--------2-----|
--0--------0---------0--------0-------0---------|
------------------------------------------------|

Light PM--------------------------------------------------|
------------------------------------------------|
------------------------------------------------|
-----------------0-----------------0------------|
-----1--4-----1--------1--4-----1--------1--4---|
--2--------2--------2--------2--------2---------|
------------------------------------------------|
Bridge 
Guitar 1
PM---------------------------------------------|
--------------------------------------|
--------------------------------------|
--------------------------------------|
--------------------------------------|
--------------------------------------|
-0-0-0-0-3-3-3-3-0---0-0-0-0-3-3-3-3-0|

Guitar 2 Part 1
--------------------------------------|
--------------------------------------|
--------------------------------------|
------------------9--10--9------------|
-/5-----7-------------------7~--------|
--------------------------------------|
[ Tab from: http://www.guitartabs.cc/tabs/m/megadeth/dread_and_the_fugitive_mind_tab.html ]
--------------------------------------|
--------------------------------------|
--------------------------------------|
------------------9--10--9------------|
--------7-------------------7~--------|
-/8-----------------------------------|

--------------------------------------|
--------------------------------------|
--------------------------------------|
------------------9--10--9------------|
-------7-------------------7~---------|
-/5-----------------------------------|

--------------------------------------|
--------------------------------------|
--------------------------------------|
------------------4---5--4------------|
-------6-------------------6~---------|
-/7-----------------------------------|
Guitar 2 Part 2
PM---------------------------------------| 
--------------------------------------|
--------------------------------------|
--------------------------------------|
------9------7--------------7-5-------|
----7------7------7-10----7-----6-7~--|
-10-----10-----10------10-------------|

PM-----------------------------------| 
--------------------------------------|
--------------------------------------|
--------------------------------------|
-----9----7------------7-5------------|
---7----7-----7-10---7-----6-7~-------|
-8----8-----8------8------------------| 

PM----------------------------------| 
--------------------------------------|
--------------------------------------|
--------------------------------------|
-----9------7----------7---5----------|
-0-7---0--7---0-7-10-0---7---6-7~-----|
--------------------------------------|

PM----------------------------------| 
--------------------------------------|
--------------------------------------|
--------------------------------------|
-----4-----5-----4-----5-4------------|
---6-----6-----6-----6-----5-6~-------|
-7-----7-----7-----7------------------|
Solo Rythem Intro
Guitar 1
------------------------------------------|
------------------------------------------|
------------------------------------------|
---1---4---7----5-----4----2~----4~-------|
-2----------------------------------7\----|
------------------------------------------|

Guitar 2
------------------------------------------|
------------------------------------------|
---8---9--11----12----11---9~----11~------|
-9----------------------------------------|
------------------------------------------|
------------------------------------------|
Solo Rythem
...PM--------------------|....PM--------------------| 
--------------------------------------------------|
--------------------------------------------------|
---------------------4--5-------------------------|
-2-------------------4--5---------------------4-2-|
-2-------------------2--3-3-3-3-3-3-3-3-3-3-3-2-0-|
-0-0-0-0-0-0-0-0-0-0------------------------------|

PM---------------------|....PM-------| 
--------------------------------------------------|
--------------------------------------------------|
-------------------2-4--4--4--4--5--5--5-4--------|
-------------------2-4--4--4--4--5--5--5-4--------|
-0-0-0-0-0-0-0-0-0-0-2--2--2--2--3--3--3-2--------|
--------------------------------------------------|

Outro
....PM-----|.......PM---|....PM.--....PM...PM
-------------------------------------------|
-------------------------------------------|
-------------------------------------------|
-------------2-------5---4-------5---5---4-|
-2--------2--2--4----3---2--2----3---3---2-|
-0--2-2-2-0--0--2-0----0----0--2---0-------|

Comments