Megadeth - Dread And The Fugitive Mind Chords & Tabs

 

Dread And The Fugitive Mind Chords & Tabs

Megadeth Chords & Tabs

Version: 1 Type: Bass Tab 0 ratings
1 star 2 stars 3 stars 4 stars 5 stars
comments

Dread And The Fugitive Mind Bass Tab

   
Dread And The Fugitive Mind by Megadeth
tabbed by Doug(appetite_for_destruction69@hotmail.com)
standard tuning

Verse    8x
G|-------------------------------|
D|-------------------------------|
A|---------3-2-------------------|
E|-0-0-2-3--0-0------------------|

Prechorus   1x
G|-----------------------------------------------------------------|
D|-----------------------------------------------------------------|
A|7---7-7-7-7-7-5---5-5-5-5-5-3---3-3-3-3-3-3---5-5---7-7----------|
E|--x----x-x-x-x-x---x---x-x-x-x-x-x----x--x-x-x--x-x----x-x---x---|

Chorus 3x
G|--------------------------------------------------------------------------|
D|0-0-0-0-0-0-0-0-0---------------------------------------------------------|
A|------------------------3-3-3-3-3-3-3-3-3-0-0-0-0-0-0-0-0-0-2-2-2-2-2-2-2-|
E|--------------------------------------------------------------------------|

Bridge
G|--------------------|
D|--------------------|
A|--------------------|
E|0-0-0-0-0-2-2-3-3-0-|

Verse    8x
G|-------------------------------|
D|-------------------------------|
A|---------3-2-------------------|
E|-0-0-2-3--0-0------------------|
[ Tab from: http://www.guitartabs.cc/tabs/m/megadeth/dread_and_the_fugitive_mind_btab.html ]
Prechorus   1x
G|-----------------------------------------------------------------|
D|-----------------------------------------------------------------|
A|7---7-7-7-7-7-5---5-5-5-5-5-3---3-3-3-3-3-3---5-5---7-7----------|
E|--x----x-x-x-x-x---x---x-x-x-x-x-x----x--x-x-x--x-x----x-x---x---|

Chorus 3x
G|--------------------------------------------------------------------------|
D|0-0-0-0-0-0-0-0-0---------------------------------------------------------|
A|------------------------3-3-3-3-3-3-3-3-3-0-0-0-0-0-0-0-0-0-2-2-2-2-2-2-2-|
E|--------------------------------------------------------------------------|

Bridge
G|--------------------|
D|--------------------|
A|--------------------|
E|0-0-0-0-0-2-2-3-3-0-|


G|-----------------------|
D|---1-4/7-5-4-2------4--|
A|-2---------------------|
E|-----------------------|

Solo
G|----------------------------------------------------------------------------|
D|0-0-0-0-0-0-0---------------------------------------------------------------|
A|--------------3-3-3-3-3-3-3-3-3-0-0-0-0-0-0-0-0-0-2-2-2-2-2-2-2-2-2-3-3-2-2-|
E|----------------------------------------------------------------------------|

Outro
G|-------------------------------------------------|
D|-------------------------------------------------|
A|----------3--------------3--2-------------3-2----|
E|-0-0-2-3----0-0-2-3--0-0---0--0-2-3-0-0----------|
Comments