Megadeth - Crush Em Chords & Tabs

 

Crush Em Chords & Tabs

Megadeth Chords & Tabs

Version: 2 Type: Tab 0 ratings
1 star 2 stars 3 stars 4 stars 5 stars
comments

Crush Em Tab

   
                          "CRUSH EM"
                              BY
                           MEGADETH 

Hi there Megadeth dudes!!! Yeah now have I done the first tab to "Risk"
the song called "Crush Em". I like this song its cool as hell. But I
had a realAudio file to listen to when I tab this song... well that
means that this tab can have some losts and wrongs... but I will update
it when the song comes on CDs...


If you have any questions or comments send it to: 
"megamustain@hotmail.com"

-----------------------------------------------------------------------------
Explanations:  h - hammer on
               b - bend
-----------------------------------------------------------------------------

Tune 1/2 step down....

     Verse 1
     -------

          |->Let Ring
eb-||-12--12------------------------------|| Play 3x
Bb-||-14--14---------------------16-------||
Gb-||-14--14-----------12-12-14--16--14~--||
Db-||------------------12-12-14------14~--||
Ab-||-------------------------------------||
Eb-||-------------------------------------||
                       .. .. 
        
eb-||-12--12--12--12--------------------|| Play Last Time
Bb-||-14--14--14--14--16-16-16--14------||
Gb-||-14--14--14--14--16-16-16--14--16--||
Db-||-------------------------------16--||
Ab-||-----------------------------------||
Eb-||-----------------------------------||
                      .. ..

  
        
     Bridge
     ------

eb-||---------------------------------------------------|| Play 2x
Bb-||---------------------------------------------------||
Gb-||---------------------------------------------------||
Db-||--7-7-----5--7-7-----5--7-7-----5--7-7-----5-------||
Ab-||------5h7--------5h7--------5h7--------5h7---------||
Eb-||---------------------------------------------------||


         
eb-||----------------------------------------------------------|| Play 2x
Bb-||----------------------------------------------------------||
Gb-||----------------------------------------------------------||
Db-||--10-10------8--10-10------8--10-10------8--10-10------8--||
Ab-||--------8h10----------8h10----------8h10----------8h10----||
Eb-||----------------------------------------------------------||

     Ref
     ---

eb-||--------------------------------------||
Bb-||--------------------------------------||
Gb-||------3-------5---8---10-------3------||
Db-||--5---3---5---5---8---10---5---3---4--||
Ab-||--5---1---5---3---6---8----5---1---4--||
Eb-||--3-------3----------------3-------2--||

     Verse 2
     -------

          |->Let Ring
eb-||-12--12------------------------------|| Play 2x
Bb-||-14--14---------------------16-------||
Gb-||-14--14-----------12-12-14--16--14~--||
Db-||------------------12-12-14------14~--||
Ab-||-------------------------------------||
Eb-||-------------------------------------||
[ Tab from: http://www.guitartabs.cc/tabs/m/megadeth/crush_em_tab_ver_2.html ]
     Bridge
     ------

eb-||---------------------------------------------------|| Play 2x
Bb-||---------------------------------------------------||
Gb-||---------------------------------------------------||
Db-||--7-7-----5--7-7-----5--7-7-----5--7-7-----5-------||
Ab-||------5h7--------5h7--------5h7--------5h7---------||
Eb-||---------------------------------------------------||


         
eb-||----------------------------------------------------------|| Play 2x
Bb-||----------------------------------------------------------||
Gb-||----------------------------------------------------------||
Db-||--10-10------8--10-10------8--10-10------8--10-10------8--||
Ab-||--------8h10----------8h10----------8h10----------8h10----||
Eb-||----------------------------------------------------------||

     Ref 2
     -----

eb-||---------------------------------|------------------------------------||
Bb-||---------------------------------|------------------------------------||
Gb-||------3-------5---8---10-------3-|-----3-------5---8---10-------3-----||
Db-||--5---3---5---5---8---10---5---3-|-5---3---5---5---8---10---5---3---4-||
Ab-||--5---1---5---3---6---8----5---1-|-5---1---5---3---6---8----5---1---4-||
Eb-||--3-------3----------------3-----|-3-------3----------------3-------2-||



    
    Bridge 2
    --------

           Crush..Crush..Crush..
eb-||------------------------------------------||
Bb-||------------------------------------------||
Gb-||------------------4-------------------4---||
Db-||--4--4--7---4--4--4---4--4--7---4--4--4---||
Ab-||--4--4--7---4--4--2---4--4--7---4--4--2---||
Eb-||--2--2--5---2--2------2--2--5---2--2------||


eb-||-----------------------------------------|| Play 2x
Bb-||-----------------------------------------||
Gb-||----------------4-----------------4-(6)--||
Db-||--4-4--7---4-4--4---4-4--7---4-4--4-(6)--||
Ab-||--4-4--7---4-4--2---4-4--7---4-4--2-(4)--||
Eb-||--2-2--5---2-2------2-2--5---2-2---------||


    
   
     Ref 3
     ----- 

eb-||-----------------------------------|-----------------------------------||
Bb-||-----------------------------------|-----------------------------------||
Gb-||------4-------6---9----------(4)-6-|-----4-------6---9----------(4)-6--||
Db-||--6---4---6---6---9---4---6--(4)-6-|-6---4---6---6---9---4---6--(4)-6--||
Ab-||--6---2---6---4---7---4---6--(2)-4-|-6---2---6---4---7---4---6--(2)-4--||
Eb-||--4-------4-----------2---4--------|-4-------4-----------2---4---------||



   
    Outro
    -----

eb-||---------------------------------------|| Fades Out...
Bb-||---------------------------------------|| Crush...Crush Em..
Gb-||-------4--------6--------4--------4-6--|| Crush...Crush Em..
Db-||--6-6--4---6-6--6---6-6--4---6-6--2-4--|| Crush...Crush Em..
Ab-||--6-6--2---6-6--4---6-6--2---6-6-------|| Crush...Crush Em..
Eb-||--4-4------4-4------4-4------4-4-------|| Crush...Crush Em..
Comments