Megadeth - Crush Em Chords & Tabs

 

Crush Em Chords & Tabs

Megadeth Chords & Tabs

Version: 1 Type: Tab 0 ratings
1 star 2 stars 3 stars 4 stars 5 stars
comments

Crush Em Tab

   
"Crush 'Em" by Megadeth
Album: Risk
Tabbed by: DxL - MelvinTheLlama@aol.com - AIM: dxlogan187 - MSN: dxlogan316@hotmail.com

Standard Tuning - EADGBE



E--16/--16/--------------------------
B--15/--15/--------------------------
G----------------------13-X-X-15-13--
D----------------------13-X-X-15-13--
A--------------13--15----------------
E------------------------------------


E------------------------------------
B--16/-16/-16/-16/---X-X-X--13-------
G--15/-15/-15/-15/---X-X-X--13-------
D-------------------------------15---
A------------------------------------
E------------------------------------


Pre Chorus

Riff A   2X 		
E----------------------------
B----------------------------
G-------------4-----------4--
D-----6-6-----4---6-6-----4--
A---------6-8---------6-8----
E----------------------------



Guitar 1
E---------------------------|-----------------------------
B---------------------------|-----------------------------
G------------4-----------4--|----------4------------------
D----6-6-----4---6-6-----4--|--6-6-----4---6-6-----6-8----
A--------6-8---------6-8----|------6-8---------6-8--------
E---------------------------|-----------------------------
|
|
Guitar 2
E---------------------------|-----------------------------
B----9-9--------------------|--------------7---8----------
G----8-8-----4-----------4--|----------4---6---7----------
D----6-6-----4---6-6-----4--|--6-6-----4---4---5----------
A--------6-8---------6-8----|------6-8--------------------
E---------------------------|-----------------------------



 Guitar 1
E----------------------------|-----------------------------
B----------------------------|-----------------------------
G-------------7------------7-|-----------7------------7----
D----9-9------7---9-9------7-|--9-9------7---9-9------7----
A--------9-11---------9-11---|------9-11---------9-11------
E----------------------------|-----------------------------
|
|
 Guitar 2
E----------------------------|-----------------------------
B----------------------------|---------------10----11------
G-------------7------------7-|-----------7----9----10------
D----9-9------7---9-9------7-|--9-9------7----7-----8-------
A--------9-11---------9-11---|------9-11-------------------
E----------------------------|-----------------------------


 Guitar 1
E----------------------------|-----------------------------
B----------------------------|-----------------------------
G-------------7------------7-|-----------7------------7----
D----9-9------7---9-9------7-|--9-9------7---9-9------7----
A--------9-11---------9-11---|------9-11---------9-11------
E----------------------------|-----------------------------
|
|
 Guitar 2
E----------------------------|-----------------------------
B--12-12-------------------7-|-----------------------------
G--11-11------7---9-9------7-|-----------7-----------------
D---9--9------7-------9-11---|--9-9------7-----------------
A--------9-11----------------|------9-11----X\-------------
E----------------------------|--------------X\----9\-------



Chorus

 F#5	      A5	    F#5		     B5		    D5
E---------------|----5----5----|---------------|----5----5----
B--7-------5----|--7---7-----7-|--7-------5----|--7---7-----7-
G-----6-6-----6-|--------------|-----6-6-----6-|--------------
D---------------|--------------|---------------|--------------
A---------------|--------------|---------------|--------------
E---------------|--------------|---------------|--------------


 Guitar 1        E5	    F#5	               B5
E---------------|----5----5----|--5----5-----5---|----7----7--
B--7-------5----|--7---7-----7-|-----7---7-7---7-|--7---------
G-----6-6-----6-|--------------|-----------------|------------
D---------------|--------------|-----------------|------------
A---------------|--------------|-----------------|------------
E---------------|--------------|-----------------|------------
|
|
 Guitar 2
E---------------|--------------|-----------------|------------
B---------------|--------------|-----------------|------------
G--7------------|--------------|---------/6--4---|------------
D--7------------|--2-------4-4-|----------X--4---|------------
A--5------------|--2-------4-4-|---------/4--2---|------------
E---------------|--0-------2-2-|-----------------|------------


  F5
E--8-------------
B----------------
G--6---4--0\-----
D----------------
A----------------
E----------------

    P.M.  .  .  .  .  .  .
E---------------------------
B---------------------------
G---------------------------
D---------------------------
A---------------------------
E--1--1--0--0--1--1--0--0---


Repeat Pre Chorus

Repeat Chorus

Repeat Chorus w/ Riff A


Riff A
[ Tab from: http://www.guitartabs.cc/tabs/m/megadeth/crush_em_tab.html ]
E--14/-14/-14/-14/-|--14/-14/-14/-14/-|-14/-14/-14/-14/-|-14/-14/-14/-14/---
B--17/-17/-17/-17/-|--17/-17/-17/-17/-|-17/-17/-17/-17/-|-17/-17/-17/-17/---
G------------------|------------------|-----------------|-------------------
D------------------|------------------|-----------------|-------------------
A------------------|------------------|-----------------|-------------------
E------------------|------------------|-----------------|-------------------


Pick Slide


 2X
E---------|-----------|----
B---------|-----------|----
G---------|-----------|-3--
D--3-3----|-1--3-3----|-3--
A--3-3----|-1--3-3----|----
E--1-1--0-|----1-1--0-|----


E----------------
B----------------
G----------------
D--3-3----6--8---
A--3-3----4--6---
E--1-1--0-4--6---



Chorus 2
 G5	    Bb5		     G5	   	    C5		   Eb5
E--------------|----6----6-----|--------------|----6----6-----
B--8------6----|--8---8----8-8-|--8------6----|--8---8-----8--
G-----7-7----7-|---------------|-----7-7----7-|---------------
D--------------|---------------|--------------|---------------
A--------------|---------------|--------------|---------------
E--------------|---------------|--------------|---------------


 Guitar 1       F5	     G5		       C5	    G5
E--------------|----6----6-----|--6----6-----6---|----8--8----
B--8------6----|--8---8----8-8-|-----8---8-8---8-|--8---------
G-----7-7----7-|---------------|-----------------|------------
D--------------|---------------|-----------------|------------
A--------------|---------------|-----------------|------------
E--------------|---------------|-----------------|------------
|
|
 Guitar 2
E--------------|---------------|-----------------|------------
B--------------|---------------|-----------------|------------
G---8----------|---------------|---------/7--5---|------------
D---8----------|--3--------5-5-|-5--------X--5---|-------5-5--
A---6----------|--3--------5-5-|-5-------/5--3---|-------5-5--
E--------------|--1--------3-3-|-3---------------|-------3-3--


Repeat Chorus 2 w/Riff B


Riff B

E--15/-15/-15/-15/-|-15/-15/-15/-15/-|-15/-15/-15/-15/-|-15/-15/-15/-15/--
B--18/-18/-18/-18/-|-18/-18/-18/-18/-|-18/-18/-18/-18/-|-18/-18/-18/-18/--
G------------------|-----------------|-----------------|------------------
D------------------|-----------------|-----------------|------------------
A------------------|-----------------|-----------------|------------------
E------------------|-----------------|-----------------|------------------


E-------------|--------------  -----------------
B-------------|--------------  -----------------
G----------3--|----------5---  -----------------
D--5-5-----3--|--5-5-----5---  --5-5-----8--10--
A--5-5--------|--5-5---------  --5-5-----8---8--
E--3-3--0-----|--3-3--0------  --3-3--0--6---8--



Outro Guitar Solo

E-----|------------------|----|---------------|--------|-------|---------------
B-----|------------------|----|---------------|--------|-----6-|---6--8-8---3--
G--5/-|-5/-5/-5/-5/-5/\3-|-3--|-3-5-3---------|-3--3-5-|--7----|-7-------------
D-----|------------------|----|-------5-3-----|--------|-------|---------------
A-----|------------------|----|-----------3-5-|--------|-------|---------------
E-----|------------------|----|---------------|--------|-------|---------------


E------------------------------------|------------------|----3-----3-6---------
B------6-----6-----6-----6-----6-----|------------------|----3-6---------------
G--5/----5/----5/----5/-----5/---5/--|-5/-5/-5/-5/-5/-5-|-5/-------------------
D------------------------------------|------------------|----------------------
A------------------------------------|------------------|----------------------
E------------------------------------|------------------|----------------------

		4X
E-----------|--------15--------15--------15--------15------
B-----18----|-----15--------15--------15--------15---------
G-17/----17-|-17/-------17/-------17/-------17/------------
D-----------|----------------------------------------------
A-----------|----------------------------------------------
E-----------|----------------------------------------------


E---------------------15-|-18-15-----15-----15-18-20-20/---
B-------15-18-18/--18----|-------18/----18/----------------
G--17/-------------------|---------------------------------
D------------------------|---------------------------------
A------------------------|---------------------------------
E------------------------|---------------------------------

									       Fade Out
E-20/-20/-20/-20/-20/-20/-20/-20/-|-20/-20/-20-20-18-20-18-15-18-15--------------------
B---------------------------------|---------------------------------15-18-15-18-15-----
G---------------------------------|------------------------------------------------17--
D---------------------------------|----------------------------------------------------
A---------------------------------|----------------------------------------------------
E---------------------------------|----------------------------------------------------




Comments