Megadeth - Chosen Ones Chords & Tabs

 

Chosen Ones Chords & Tabs

Megadeth Chords & Tabs

Version: 1 Type: Tab 0 ratings
1 star 2 stars 3 stars 4 stars 5 stars
comments

Chosen Ones Tab

   
Megadeth
album Killing is my business (and business is good)
Chosen ones 


Gtr I (E A D G B E) - 'Dave Mustaine'
Gtr II (E A D G B E) - 'Chris Poland'

 Intro
  Q=215
  N.C.
 4/4
  Gtr I
    PM|   PM          PM|   PM          PM|   PM
|-----------------|-----------------|-----------------|------------------|
|-----------------|-----------------|-----------------|------------------|
|-5---------------|-5---------------|-5---------------|-7-6-5------------|
|-------7---5-----|-------7---5-----|-------7---5-----|-------7-6-5------|
|---0-0---0---6-7-|---0-0---0---6-7-|---0-0---0---6-7-|-------------7-6--|
|-----------------|-----------------|-----------------|------------------|


  Gtrs I, II
    PM|   PM          PM|   PM          PM|   PM
|-----------------|-----------------|-----------------|-----------------|
|-----------------|-----------------|-----------------|-----------------|
|-5---------------|-5---------------|-5---------------|-7-6-5-----------|
|-------7---5-----|-------7---5-----|-------7---5-----|-------7-6-5-----|
|---0-0---0---6-7-|---0-0---0---6-7-|---0-0---0---6-7-|-------------7-6-|
|-----------------|-----------------|-----------------|-----------------|


   Verse
    $
      PM|   PM          PM|   PM          PM|   PM
||------------------|-----------------|-----------------|-------------------||
||o-----------------|-----------------|-----------------|------------------o||
||--5---------------|-5---------------|-5---------------|-7-6-5-------------||
||--------7---5-----|-------7---5-----|-------7---5-----|-------7-6-5-------||
||o---0-0---0---6-7-|---0-0---0---6-7-|---0-0---0---6-7-|-------------7-6--o||
||------------------|-----------------|-----------------|-------------------||


  E5         D5   Bb5    N.C.
                           PM|   PM          PM|   PM
|----------|-----------|-----------------|-----------------|
|----------|-----------|-----------------|-----------------|
|----------|-----------|-5---------------|-5---------------|
|-9--------|-7---------|-------7---5-----|-------7---5-----|
|-7--------|-5----8----|---0-0---0---6-7-|---0-0---0---6-7-|
|----------|------6----|-----------------|-----------------|


                                                      D.S.
  E5         D5   Bbadd2  N.C.
  Gtr I
                            PM|   PM
|----------|------------|-----------------|-----------------|
|----------|------------|-----------------|-----------------|
|----------|------------|-5---------------|-7-6-5-----------|
|-9--------|-7----------|-------7---5-----|-------7-6-5-----|
|-7--------|-5-----8----|---0-0---0---6-7-|-------------7-6-|
|----------|-------6----|-----------------|-----------------|
|
| Gtr II
|                           PM|   PM
|----------|------------|-----------------|-----------------|
|----------|------------|-----------------|-----------------|
|----------|------------|-5---------------|-7-6-5-----------|
|-9--------|-7----10----|-------7---5-----|-------7-6-5-----|
|-7--------|-5-----8----|---0-0---0---6-7-|-------------7-6-|
|----------|------------|-----------------|-----------------|


              Bridge
           Q=190
               A5                       C5                           B5
|----------||------------------------------|----------------------------|
|----------||o-----------------------------|----------------------------|
|----------||------------------------------|----------------------------|
|----------||--2------------------------5--|-------------------------4--|
|-7--------||o-0------------------------3--|-------------------------2--|
|-5--------||------------------------------|----------------------------|
|
|----------||------------------------------|----------------------------|
|----------||o-----------------------------|----------------------------|
|----------||--0h2-[5]p4p=2p0--------------|-0h2-[5]p4p2p0--------------|
|----------||-----------------[5]p4p2p0-5--|---------------[5]p4p2p0-4--|
|-7--------||o--------------------------3--|-------------------------2--|
|-5--------||------------------------------|----------------------------|


                          Bb5                N.C.
|----------------------------|------------------------||
|----------------------------|-----------------------o||
|----------------------------|---------------2-0------||
|-------------------------3--|-------------------1-0--||
|-------------------------1--|-----------------------o||
|----------------------------|------------------------||
|
|----------------------------|------------------------||
|----------------------------|-----------------------o||
|-0h2-[5]p4p2p0--------------|-0h2-[5]p4p2p0-2-0------||
|---------------[5]p4p2p0-3--|-------------------1-0--||
|-------------------------1--|-----------------------o||
|----------------------------|------------------------||


   Verse
    A5                       C5                           B5
||------------------------------|----------------------------|
||o-----------------------------|----------------------------|
||------------------------------|----------------------------|
||--2------------------------5--|-------------------------4--|
||o-0------------------------3--|-------------------------2--|
||------------------------------|----------------------------|
|
||------------------------------|----------------------------|
||o-----------------------------|----------------------------|
||--0h2-[5]p4p=2p0--------------|-0h2-[5]p4p2p0--------------|
||-----------------[5]p4p2p0-5--|---------------[5]p4p2p0-4--|
||o--------------------------3--|-------------------------2--|
||------------------------------|----------------------------|


                          Bb5                N.C.
|----------------------------|------------------------||
|----------------------------|-----------------------o||
|----------------------------|---------------2-0------||
|-------------------------3--|-------------------1-0--||
|-------------------------1--|-----------------------o||
|----------------------------|------------------------||
|
|----------------------------|------------------------||
|----------------------------|-----------------------o||
|-0h2-[5]p4p2p0--------------|-0h2-[5]p4p2p0-2-0------||
|---------------[5]p4p2p0-3--|-------------------1-0--||
|-------------------------1--|-----------------------o||
|----------------------------|------------------------||


    A5                          C5   A5                          B5
         PM---|                           PM---|
||---------------------------------|--------------------------------|
||o--------------------------------|--------------------------------|
||---------------------------------|--------------------------------|
||--2-------------2---------2---5--|-2-------------2---------2---4--|
||o-0----0--0-0---0---------0---3--|-0----0--0-0---0---------0---2--|
||---------------------------------|--------------------------------|
|
||---------------------------------|--------------------------------|
||o--------------------------------|--------------------------------|
||--0h2-[5]p4p2p0------------------|-0h2-[5]p4p2p0------------------|
||------------------[5]p4p2p==0-5--|-----------------[5]p4p2p==0-4--|
||o-----------------------------3--|-----------------------------2--|
||---------------------------------|--------------------------------|


  A5                          Bb5  A5                    N.C.
       PM---|                          PM--------|
|--------------------------------|-----------------------------------||
|--------------------------------|----------------------------------o||
|--------------------------------|-----------------------2-0---------||
|-2-------------2---------2---3--|-2-----------------2-------1-0-----||
|-0----0--0-0---0---------0---1--|-0---0-----0---0---0--------------o||
|--------------------------------|-----------------------------------||
|
|--------------------------------|-----------------------------------||
|--------------------------------|----------------------------------o||
|-0h2-[5]p4p2p0------------------|-0h2---[5]p==4p==2p==0-2-0---------||
|-----------------[5]p4p2p==0-3--|---------------------------1-0-----||
|-----------------------------1--|----------------------------------o||
|--------------------------------|-----------------------------------||


 Solo
  N.C.
|----------------------------------------|------------------------------------|
|-9b10================(9)r---------------|-9---7------------------------------|
|-9b10================(9)r---9p8-9p7-9---|-9---7tr9---------------------------|
|--------------------------------------9-|------------------------------------|
|----------------------------------------|------------------------------------|
|----------------------------------------|------------------------------------|
|
| PM------------------------------------------------------------------------|
|----------------------------------------|------------------------------------|
|----------------------------------------|------------------------------------|
|----------------------------------------|------------------------------------|
|----------------------------------------|------------------------------------|
|-2-----2-2-2-0-0-2-2--3---3-3-3-5-5-3-3-|-2-2-2----2-0-0-2-2-3-3-3-3-5-5-3-3-|
|----------------------------------------|------------------------------------|


                                                 B5
|---------------------------7-----------|--------------------------------|
|--------------7h8-10-10-10---10-7-10-7-|--------------------------------|
|---------7-10--------------------------|-9b11-9-7---7-------------------|
|-7h8-9-9-------------------------------|----------9-----9-7-----7-9-----|
|---------------------------------------|--------------------9-----------|
|---------------------------------------|--------------------------------|
|
| PM-------------------------------------------|
|---------------------------------------|--------------------------------|
|---------------------------------------|--------------------------------|
|---------------------------------------|--------------------------------|
|---------------------------------------|--------4-----4-------4---------|
|-2-2-2-2-0--0-2-2--3--3--3-3--5-5--3-3-|-0----0-2-----2-------2---------|
|---------------------------------------|--------------------------------|


  N.C.
|---------------------------------------------------------|
|---------------------------------------------------------|
|----------9---8----------------------12---11-------------|
|-7---10-----------7--------10h==13------------------12---|
|----------------------10-----------------------13--------|
|---------------------------------------------------------|
|
| PM-------------------------------------------------------
|---------------------------------------------------------|
|---------------------------------------------------------|
|---------------------------------------------------------|
|---------------------------------------------------------|
|-2-2----2---2-0-0---2----2--3-3----3----3--5-5----3----3-|
|---------------------------------------------------------|


|-----------------------------------------15---14---15---17----|
|-----------14---13-------------13---17------------------------|
|-11h==14------------------11----------------------------------|
|---------------------14---------------------------------------|
|--------------------------------------------------------------|
|--------------------------------------------------------------|
|
|-----------------------------------------------------------|
|--------------------------------------------------------------|
|--------------------------------------------------------------|
|--------------------------------------------------------------|
|--------------------------------------------------------------|
|--2-2----2----2--0-0----2----2--3-3----3----3--5-5----3----3--|
|--------------------------------------------------------------|


|-20p19-17p15---------14h15-17-20p19-17----------------|
|-------------15b16---------------------20p19-17-------|
|------------------------------------------------19b20-|
|------------------------------------------------------|
|------------------------------------------------------|
|------------------------------------------------------|
|
|  PM---------------------------------------------------
|------------------------------------------------------|
|------------------------------------------------------|
|------------------------------------------------------|
|------------------------------------------------------|
|--2--2--2--2--0----0--2--2--3--3--3--3--5--5--3--3----|
|------------------------------------------------------|


        B5
|----14h15-17-15---14-15-17p==15-14-15---14--------------|
|-16----------------------------------------17-15-14-----|
|----------------------------------------------------16--|
|--------------------------------------------------------|
|--------------------------------------------------------|
|--------------------------------------------------------|
|
|----|
|--------------------------------------------------------|
|--------------------------------------------------------|
|--------------------------------------------------------|
|--------4-------4----------4-------(4)\-----------------|
|--0--0--2-------2----------2-------(2)\-----------------|
|--------------------------------------------------------|


  N.C.
|----------------------------------------------|
|-22b24-----------22b24-------22b24p======19---|
|----------------------------------------------|
|----------------------------------------------|
|----------------------------------------------|
|----------------------------------------------|
|
|  PM-------------------------------------------
|----------------------------------------------|
|----------------------------------------------|
|----------------------------------------------|
|----------------------------------------------|
|--2----2-2-2-0-0--2----2-3-3--3----3-5-5--3-3-|
|----------------------------------------------|


|-24b26-----------24b26-----------22---19---|
|-------------------------------------------|
|-------------------------------------------|
|-------------------------------------------|
|-------------------------------------------|
|-------------------------------------------|
|
|-----------------------------------------|
|-------------------------------------------|
|-------------------------------------------|
|-------------------------------------------|
|-------------------------------------------|
|--2----2-2-2-0-0--2----2-3-3-3-3--5-5--3-3-|
|-------------------------------------------|


|-22---20---19----------------------------------12---|
|----------------22---20---19------------------------|
|-------------------------------21b23----------------|
|----------------------------------------------------|
|----------------------------------------------------|
|----------------------------------------------------|
|
|  PM-------------------------------------------------
|----------------------------------------------------|
|----------------------------------------------------|
|----------------------------------------------------|
|----------------------------------------------------|
|--2-2----2----2--0-0----2----2--3----3-3-3-5-5--3-3-|
|----------------------------------------------------|


          B5
|-15p==12---------------------------------|
|-----------15p12-------------------------|
|-------------------14p12-----------------|
|---------------------------12b13---------|
|-----------------------------------------|
|-----------------------------------------|
|
|----|
|-----------------------------------------|
|-----------------------------------------|
|-----------------------------------------|
|---------4-------4-------4-------(4)\----|
|--0-0----2-------2-------2-------(2)\----|
|-----------------------------------------|

[ Tab from: http://www.guitartabs.cc/tabs/m/megadeth/chosen_ones_tab.html ]
  N.C.
|-------------------------------------------------|
|-------------------------------------------------|
|-------------------------------------------------|
|----------------------------14-15-14-------------|
|-------------14-15-14-15-17----------17-15-14----|
|-15-17-15-17----------------------------------17-|
|
|  PM----------------------------------------------
|-------------------------------------------------|
|-------------------------------------------------|
|-------------------------------------------------|
|-------------------------------------------------|
|--2--2--2--2--0--0--2--2--3--3--3--3--5--5--3--3-|
|-------------------------------------------------|


|-------------------------------------------------|
|-------------------------------------------------|
|-------------------14----14-16-17-16-14-16-14----|
|----------14-16-17----17----------------------17-|
|----16-17----------------------------------------|
|-15----------------------------------------------|
|
|----------------------------------------------|
|-------------------------------------------------|
|-------------------------------------------------|
|-------------------------------------------------|
|-------------------------------------------------|
|--2--2--2--2--0--0--2--2--3--3--3--3--5--5--3--3-|
|-------------------------------------------------|


|-------------------------------------------------|
|-------------14-15-16-17-18-19-19-18-17----------|
|-14-14-16-17----------------------------19-18-17-|
|-------------------------------------------------|
|-------------------------------------------------|
|-------------------------------------------------|
|
|  PM----------------------------------------------
|-------------------------------------------------|
|-------------------------------------------------|
|-------------------------------------------------|
|-------------------------------------------------|
|--2--2--2--2--0--0--2--2--3--3--3--3--5--5--3--3-|
|-------------------------------------------------|


        B5
|-------------15---17-19-19---20-22-22---20-19-----------|
|----15-17-19----------------------------------22-20-19--|
|--------------------------------------------------------|
|-19-----------------------------------------------------|
|--------------------------------------------------------|
|--------------------------------------------------------|
|
|----|
|--------------------------------------------------------|
|--------------------------------------------------------|
|--------------------------------------------------------|
|--------4-------4----------4-------(4)\-----------------|
|--0--0--2-------2----------2-------(2)\-----------------|
|--------------------------------------------------------|


  N.C.
|-------------------------------------------------|
|-------------------------------------------------|
|-------------------------------------------------|
|-------------------------------------------------|
|-------------------------------------10-11-12-13-|
|-10-11-12-13-12-13-14-15-13-14-15-16-------------|
|
|  PM----------------------------------------------
|-------------------------------------------------|
|-------------------------------------------------|
|-------------------------------------------------|
|-------------------------------------------------|
|--5--5--5--5--3--3--5--5--6--6--6--6--8--8--6--6-|
|-------------------------------------------------|


|-------------------------------------------------|
|-------------------------------------------------|
|-------------------------------------------------|
|-------------------------10-11-12-13-12-13-14-15-|
|-12-13-14-15-13-14-15-16-------------------------|
|-------------------------------------------------|
|
|----------------------------------------------|
|-------------------------------------------------|
|-------------------------------------------------|
|-------------------------------------------------|
|-------------------------------------------------|
|--5--5--5--5--3--3--5--5--6--6--6--6--8--8--6--6-|
|-------------------------------------------------|


|-------------------------------------------------|
|-------------------------------------13h15-13----|
|-------------10h12-10----10-12-14-15----------15-|
|-14-15-16-17----------14-------------------------|
|-------------------------------------------------|
|-------------------------------------------------|
|
|  PM----------------------------------------------
|-------------------------------------------------|
|-------------------------------------------------|
|-------------------------------------------------|
|-------------------------------------------------|
|--5--5--5--5--3--3--5--5--6--6--6--6--8--8--6--6-|
|-------------------------------------------------|


|----------13----------------------13-15-13-15-13-|
|-13-15-16----16-15-13----13-15-16----------------|
|----------------------15-------------------------|
|-------------------------------------------------|
|-------------------------------------------------|
|-------------------------------------------------|
|
|----------------------------------------------|
|-------------------------------------------------|
|-------------------------------------------------|
|-------------------------------------------------|
|-------------------------------------------------|
|--5--5--5--5--3--3--5--5--6--6--6--6--8--8--6--6-|
|-------------------------------------------------|


|-17---18---17-15-17-15-14-15-14----14----------|
|--------------------------------17----15-14-15-|
|-----------------------------------------------|
|-----------------------------------------------|
|-----------------------------------------------|
|-----------------------------------------------|
|
|  PM--------------------------------------------
|-----------------------------------------------|
|-----------------------------------------------|
|-----------------------------------------------|
|-----------------------------------------------|
|--5-5--5-5--3--3--5--5--6--6--6--6--8--8--6--6-|
|-----------------------------------------------|


|-------------------------------------------------|
|-14----14----------------------------------------|
|----16----15-14-15-14----14----------------------|
|----------------------17----17-14-15-14----14----|
|----------------------------------------17----15-|
|-------------------------------------------------|
|
|----------------------------------------------|
|-------------------------------------------------|
|-------------------------------------------------|
|-------------------------------------------------|
|-------------------------------------------------|
|--5--5--5--5--3--3--5--5--6--6--6--6--8--8--6--6-|
|-------------------------------------------------|


|-------------------------------------------------|
|-------------------------------------------------|
|-------------------------------------------------|
|-------------------------------------------------|
|-------------------------------------------------|
|-17-17-16-16-15-15-14-14-13-13-12-12-11-11-10-10-|
|
|  PM----------------------------------------------
|-------------------------------------------------|
|-------------------------------------------------|
|-------------------------------------------------|
|-------------------------------------------------|
|--5--5--5--5--3--3--5--5--6--6--6--6--8--8--6--6-|
|-------------------------------------------------|


      D5
|----------------------------------------|
|----------------------------------------|
|----------------------------------------|
|----------------------------------------|
|----------------------------------------|
|-9-9-8-8-7---7-6-6---5-5--4---4-3-3-2-2-|
|
|---|
|----------------------------------------|
|----------------------------------------|
|----------------------------------------|
|-----7-----7-------7-----(7)\-----------|
|-3-3-5-----5-------5-----(5)\-----------|
|----------------------------------------|


    A5                    C5            A5                    B5
       PM-----|                            PM-----|
||------------------------------------|-----------------------------------|
||o-----------------------------------|-----------------------------------|
||------------------------------------|-----------------------------------|
||---2-----------2---2-----5----------|--2-----------2---2-----4----------|
||o--0-0----0-0--0---0-----3----------|--0-0----0-0--0---0-----2----------|
||------------------------------------|-----------------------------------|
|
|    TP   TP     TP                      TP   TP     TP
||--24---23-----24--23-24-20-19-17-19-|-24---23-----24--23-24-20-19-17-19-|
||o-----------------------------------|-----------------------------------|
||------------------------------------|-----------------------------------|
||------------------------------------|-----------------------------------|
||o-----------------------------------|-----------------------------------|
||------------------------------------|-----------------------------------|


  A5                    Bb5           A5          N.C.
     PM-----|                            PM--|
|-----------------------------------|---------------------------||
|-----------------------------------|--------------------------o||
|-----------------------------------|-------------2-0-----------||
|--2-----------2---2-----3----------|--2--------2-----1---0-----||
|--0-0----0-0--0---0-----1----------|--0-0-0-0--0--------------o||
|-----------------------------------|---------------------------||
|
|  TP   TP     TP                      TP       TP        TP
|-24---23-----24--23-24-20-19-17-19-|---------------------------||
|-----------------------------------|-19-------21-------(21)---o||
|-----------------------------------|---------------------------||
|-----------------------------------|---------------------------||
|-----------------------------------|--------------------------o||
|-----------------------------------|---------------------------||


 Verse
  A5                    C5            A5                    B5
     PM-----|                            PM-----|
|-----------------------------------|-----------------------------------|
|-----------------------------------|-----------------------------------|
|-----------------------------------|-----------------------------------|
|--2-----------2---2-----5----------|--2-----------2---2-----4----------|
|--0-0----0-0--0---0-----3----------|--0-0----0-0--0---0-----2----------|
|-----------------------------------|-----------------------------------|
|
|  TP   TP     TP                      TP   TP     TP
|-24---23-----24--23-24-20-19-17-19-|-24---23-----24--23-24-20-19-17-19-|
|-----------------------------------|-----------------------------------|
|-----------------------------------|-----------------------------------|
|-----------------------------------|-----------------------------------|
|-----------------------------------|-----------------------------------|
|-----------------------------------|-----------------------------------|


  A5                    Bb5           A5          N.C.
     PM-----|                            PM--|
|-----------------------------------|---------------------------|
|-----------------------------------|---------------------------|
|-----------------------------------|-------------2-0-----------|
|--2-----------2---2-----3----------|--2--------2-----1---0-----|
|--0-0----0-0--0---0-----1----------|--0-0-0-0--0---------------|
|-----------------------------------|---------------------------|
|
|  TP   TP     TP                      TP       TP        TP
|-24---23-----24--23-24-20-19-17-19-|---------------------------|
|-----------------------------------|-19-------21-------(21)----|
|-----------------------------------|---------------------------|
|-----------------------------------|---------------------------|
|-----------------------------------|---------------------------|
|-----------------------------------|---------------------------|


                                                        Q
  A5                    C5            A5
                                     3/4
     PM-----|                            PM-----|
|-----------------------------------|-------------------|
|-----------------------------------|-------------------|
|-----------------------------------|-------------------|
|--2-----------2---2-----5----------|--2-----------2--2-|
|--0-0----0-0--0---0-----3----------|--0-0----0-0--0--0-|
|-----------------------------------|-------------------|
|
|  TP   TP     TP                      TP   TP     TP
|-24---23-----24--23-24-20-19-17-19-|-24---23-----24----|
|-----------------------------------|-------------------|
|-----------------------------------|-------------------|
|-----------------------------------|-------------------|
|-----------------------------------|-------------------|
|-----------------------------------|-------------------|


 =120
  F5                      E5
 4/4
|-------0-----0---------|-----0----0---------|
|-------------------0---|---------------0----|
|-----------------------|--------------------|
|-10--(10)--(10)--(10)--|-9--(9)--(9)--(9)---|
|--8---(8)---(8)---(8)--|-7--(7)--(7)--(7)---|
|-----------------------|--------------------|
|
|-------0-----0---------|-----0----0---------|
|-------------------0---|---------------0----|
|-----------------------|--------------------|
|-10--(10)--(10)--(10)--|-9--(9)--(9)--(9)---|
|--8---(8)---(8)---(8)--|-7--(7)--(7)--(7)---|
|-----------------------|--------------------|


  Eb5                 C5
  Gtrs I, II
|-----0----0--------|-----0----0--------|
|---------------0---|---------------0---|
|-------------------|-------------------|
|-8--(8)--(8)--(8)--|-5--(5)--(5)--(5)--|
|-6--(6)--(6)--(6)--|-3--(3)--(3)--(3)--|
|-------------------|-------------------|


  N.C.
|-----------------------------|-----------------------------|
|-----------------------------|-----------------------------|
|-----4-3-2---------5-4-3-----|-----6-5-4---------7-6-5-----|
|-----------4-3-----------5-4-|-----------6-5-----------7-6-|
|-2-2-----------3-3-----------|-4-4-----------5-5-----------|
|-----------------------------|-----------------------------|


                                           Original Tempo Q=215
                                D5
                                      ~~~~~~~~~~~~~~~~~~~~~~~~
|-----------------------------|------------|------------|----------------|
|-----------------------------|-8--8--8----|-(8)--------|-(8)----(8)\----|
|-----8-7-6---------9-8-7-----|-7--7--7----|-(7)--------|-(7)----(7)\----|
|-----------8-7-----------9-8-|------------|------------|----------------|
|-6-6-----------7-7-----------|------------|------------|----------------|
|-----------------------------|------------|------------|----------------|


 Bass Fill   Verse
  N.C.        E5         D5   Bb5    N.C.
                                       PM|   PM          PM|   PM
|---------||-----------|-----------|-----------------|-----------------|
|---------||o----------|-----------|-----------------|-----------------|
|---------||-----------|-----------|-5---------------|-5---------------|
|---------||--9--------|-7---------|-------7---5-----|-------7---5-----|
|---------||o-7--------|-5----8----|---0-0---0---6-7-|---0-0---0---6-7-|
|---------||-----------|------6----|-----------------|-----------------|


                                           1.
  Gtr I
                            PM|   PM          PM|   PM
|----------|------------|-----------------|------------------||
|----------|------------|-----------------|-----------------o||
|----------|------------|-5---------------|-5----------------||
|-9--------|-7----------|-------7---5-----|-------7---5------||
|-7--------|-5-----8----|---0-0---0---6-7-|---0-0---0---6-7-o||
|----------|-------6----|-----------------|------------------||
|
| Gtr II
|                           PM|   PM          PM|   PM
|----------|------------|-----------------|------------------||
|----------|------------|-----------------|-----------------o||
|----------|------------|-5---------------|-5----------------||
|-9--------|-7----10----|-------7---5-----|-------7---5------||
|-7--------|-5-----8----|---0-0---0---6-7-|---0-0---0---6-7-o||
|----------|------------|-----------------|------------------||


                   Outro
  2.
                    A5
|-----------------|----------|------|
|-----------------|----------|------|
|-7-6-5-----------|----------|------|
|-------7-6-5-----|----------|------|
|-------------7-6-|-7--------|-7----|
|-----------------|-5--------|-5----|


|------------|------------|----------|-----------*|
|------------|------------|----------|-----------*|
|------------|------------|----------|-----------*|
|------------|------------|----------|-----------*|
|-(7)--------|-(7)--------|-7--------|-----7\----*|
|-(5)--------|-(5)--------|-5--------|-----5\----*|



			
Comments