Megadeth - Architecture Of Aggression Chords & Tabs

 

Architecture Of Aggression Chords & Tabs

Megadeth Chords & Tabs

Version: 1 Type: Bass Tab 0 ratings
1 star 2 stars 3 stars 4 stars 5 stars
comments

Architecture Of Aggression Bass Tab

Architecture of Aggression - Megadeth
Jon Craven (i_apathy@hotmail.com; www.homestead.com/larsramirez)
(enters after approx 9 measures {just after gun intro})

Intro:
G:---|---|---|---------------|-------------|---|---|---------------|
D:---|---|---|---------------|-------------|---|---|---------------|
A:---|---|---|---------------|-------------|---|---|---------------|
E:-R-|-R-|-R-|-R--R--0-0-0-0-|-0-2-R--R--R-|-R-|-R-|-R--R--0-0-0-0-|

Riff 1: (x4)
G:-----------------|---------------|-----------------|-----------------|
D:-----------------|---------------|-----------------|-----------------|
A:-----------------|---------------|-----------------|-----------------|
E:-0-2-0-3-0-2-0-5-|-6-5-0-0-2-3-2-|-0-2-0-3-0-2-0-5-|-6-5-0-0-0-0-0-0-|

Riff 2:
G:---------------|---------------|---------------|---------------|---------------|---------------|
D:---------------|---------------|---------------|---------------|---------------|---------------|
A:---------------|----0-0-0--2-2-|---------------|----0-0-0--2-2-|-2--4-4-4--5-5-|-5--7-7-7--5-5-|
E:-0--2-2-2--3-3-|-3-------------|-0--2-2-2--3-3-|-3-------------|---------------|---------------|

G:---------------|---------------|
D:---------------|---------------|
A:---------------|----0-0-0--2-2-|
E:-0--2-2-2--3-3-|-3-------------|

Riff 3:
G:----------------|-----------------|----------------|-----------------|----------------|
D:----------------|-----------------|----------------|-----------------|----------------|
A:----------------|-----------------|----------------|---------7-5-4-R-|----------------|
E:-0-2-R--2-2-3-R-|-3-3-5-R-5-5-3-R-|-0-2-R--2-2-3-R-|-3-3-5-R---------|-0-2-R--2-2-3-R-|

G:---------11-----|-7-----6----|-5-5-6-6-6-----|----------|
D:-------------11-|----6-----5-|-----------4**-|-********-|
A:----------------|------------|---------------|----------|
E:-3-3-5-R--------|------------|---------------|----------|

Riff 1 (x4)
Riff 2

Riff 4:
G:-------------------|-----------------|-------------------|-----------------|-------------------|
D:-7h9-9-9-9-9-9-9-9-|-7-7-7-7-7-7-7-7-|-------------------|-----------------|-7h9-9-9-9-9-9-9-9-|
A:-------------------|-----------------|-7h9-9-9-9-9-9-9-9-|-7-7-7-7-7-7-7-7-|-------------------|
E:-------------------|-----------------|-------------------|-----------------|-------------------|
[ Tab from: http://www.guitartabs.cc/tabs/m/megadeth/architecture_of_aggression_btab.html ]
G:-----------------|-------------------|-----------------|--------11---------11----|
D:-7-7-7-7-7-7-7-7-|-------------------|-----------------|-----11----11---11----11-|
A:-----------------|-7h9-9-9-9-9-9-9-9-|-7-7-7-7-7-7-7-7-|-7/9----------9----------|
E:-----------------|-------------------|-----------------|-------------------------|

Riff 5: (x4)
G:----------------|-------------|----------------|-------------|
D:----------------|-------------|----------------|-------5-4-3-|
A:------------0-1-|-0****-5-4-3-|------------0-1-|-0****-------|
E:-0-0-2-3-2------|-------------|-0-0-2-3-2------|-------------|

Riff 6: (x4)
G:-----------------|---------------|
D:-----------------|---------------|
A:-----------------|---------------|
E:-2-0-2-2-2-2-5-5-|-5-5-2-0-2-3-2-|

Riff 7:
G:----------------|-----------------|----------------|-----------------|----------------|
D:----------------|-----------------|----------------|-----------------|----------------|
A:----------------|-----------------|----------------|---------7-5-4-R-|----------------|
E:-0-2-R--2-2-3-R-|-3-3-5-R-5-5-3-R-|-0-2-R--2-2-3-R-|-3-3-5-R---------|-0-2-R--2-2-3-R-|

G:---------11-----|----------------|-----------------|----------------|-----------------|
D:-------------11-|----------------|-----------------|----------------|-----------------|
A:----------------|----------------|-----------------|----------------|---------7-5-4-R-|
E:-3-3-5-R--------|-0-2-R--2-2-3-R-|-3-3-5-R-5-5-3-R-|-0-2-R--2-2-3-R-|-3-3-5-R---------|

G:----------------|-----------------|----------------|-----------------|
D:----------------|-----------------|----------------|-----------------|
A:----------------|-----------------|----------------|---------7-5-4-R-|
E:-0-2-R--2-2-3-R-|-3-3-5-R-5-5-3-R-|-0-2-R--2-2-3-R-|-3-3-5-R---------|

Riff 1 (x4)
Riff 2

End:
G:---------------|---------------|---------------|---------------|---------------|--------------|
D:---------------|---------------|---------------|---------------|---------------|--------------|
A:---------------|----0-0-0--2-2-|---------------|----0-0-0--2-2-|-2--4-4-4--5-5-|-5--7-7-7--5*-|
E:-0--2-2-2--3-3-|-3-------------|-0--2-2-2--3-3-|-3-------------|---------------|--------------|

G:----------|-7-----6----|-5-5-6-6-6-----|
D:----------|----6-----5-|-----------4**-|
A:-********-|------------|---------------|
E:----------|------------|---------------|

Break till end
Comments