Megadeth - Almost Honest Chords & Tabs

 

Almost Honest Chords & Tabs

Megadeth Chords & Tabs

Version: 1 Type: Tab 0 ratings
1 star 2 stars 3 stars 4 stars 5 stars
comments

Almost Honest Tab

Artist: Megadeth
Song: Almost Honest
Tabbed by: John Leadman


Intro and verse riff:

G)--------------------------------------0-----------------------
D)-------------2----------------2-------0--------2--------------
A)--------2---------------------2----------------0------2-------
E)---0---------------2---3------------------------------0-------

Before vocals:

D)-----2------------------7------9----------
A)-----0--------2---------5------7----------
E)--------------0----------------------------

Pre chorus:

D)-----2---------------2----------------------------------
A)-----0-------2-------0------2---------5------6----------
E)-------------0--------------0---------5------6----------



D)--------------------------------------------------------
A)--------------------------------------------------------
E)---7--7--5--6--7--7--5--6--7--7--5--6------7--6--5------

Chorus...(not completely sure about this)

G)----9---------7---------7-----------
D)----9---------7---------5-----------
A)----7---------5---------5-----------
E)----7---------5---------------------



G)----9---------7------7-------------------------
D)----9---------7------7-------------------------
A)----7---------5------5-------------------------
E)----7---------5------5--------2--3--2--0-------

2nd verse:

G)--------------------------------------0----------------------------
D)-------------2-----------------2------0------2---------------------
A)---------2---------------------2-------------0----2----------------
E)----0---------------2---3-------------------------0----0-0-0-0-0---

Interlude:

E)---7------------------7-------------------7------------------
B)-------------------------------------------------------------
G)---------9------------------9--------------------------------
D)---------------9-----------------9-----------------9---------

[ Tab from: http://www.guitartabs.cc/tabs/m/megadeth/almost_honest_tab.html ]
E)---7------------------7--------------------7-----------------
B)-------------------------------------------------------------
G)--------8-------------------8--------------------------------
D)-------------9--------------------9----------------9---------


E)---5------------------5--------------------5-----------------
B)-------------------------------------------------------------
G)--------7-------------------7--------------------------------
D)-------------7---------------------7----------------7--------


E)---5------------------5---------------------5----------------
B)-------------------------------------------------------------
G)--------6-------------------6--------------------------------
D)-------------7---------------------7-----------------7-------


E)---3------------------3---------------------3----------------
B)-------------------------------------------------------------
G)--------5------------------5---------------------------------
D)-------------5------------------5--------------------5-------


E)---5------------------5---------------------5----------------
B)-------------------------------------------------------------
G)--------7------------------7---------------------------------
D)-------------7------------------7--------------------7-------


E)---7------------------7---------------------7----------------
B)-------------------------------------------------------------
G)--------9------------------9---------------------------------
D)-------------9------------------9--------------------9-------


E)---5------------------4--------------4------------4----------
B)-------------------------------------------------------------
G)--------7------------------6---------------6-----------------
D)-------------7-----------------------------------------------

Then:

G)--9-----8-8-8-----7----6-6-6------5------7-7-7--------
D)--9-----8-8-8-----7----6-6-6------5------7-7-7--------
A)--7-----6-6-6-----5----4-4-4------3------5-5-5--------
E)------------------------------------------------------

Outro:  (not completely sure about this either)

D)-----------7-/-9---9------------------2----------------------------
A)--2--2-----5-/-7---7-------2----2-----0------3--2--0---0--3--5-----
E)--0--0---------------------0----0----------------------------------




Comments