Megadeth - A Tout Le Monde Chords & Tabs

 

A Tout Le Monde Chords & Tabs

Megadeth Chords & Tabs

Version: 2 Type: Tab 0 ratings
1 star 2 stars 3 stars 4 stars 5 stars
comments

A Tout Le Monde Tab

#----------------------------------PLEASE NOTE---------------------------------#
#This file is the author's own work and represents their interpretation of the #
#song. You may only use this file for private study, scholarship, or research. #
#------------------------------------------------------------------------------##
[two versions]
submitted but not authored by: L.Metcalfe@cm.cf.ac.uk (L Metcalfe)


----8<------------------------------------------------------------------------

____   ____                                                         ___   ____
 |Y\   /Y| ________ ________            ______   ________ _________ |YI   |Y|
 ||\\ //|| |>----<| |>----<|     /\     |>---<\  |>----<| |\-----/| |||   |||
 ||\\Y//|| ||T___\! ||T~~~\!    //\\    ||T~~\\\ ||T___\! |/~TYT~\| ||l___|||
 |||\Y/||| ||<-<]   |||  ___   ///\\\   |||  ||| ||<-<]      |||    ||<--->||
 ||| Y ||| ||l_____ ||l__|Y|  //<==>\\  ||l__/// ||l_____    |||MAT |||~~~|||
 |||   ||| |^----<| |^--->|| ///~~~~\\\ |^---[ Tab from: http://www.guitartabs.cc/tabs/m/megadeth/a_tout_le_monde_tab_ver_2.html ]
(Guitar1)------------------------|--------------------------------|
|--------------------------------|--------------------------------|
|4-------------------------------|--------------------------------|
|4-------------------------------|5-----------5---7-----------5---|
|2-------------------------------|5-----------5---7-----------5---|
|--------------------------------|3-----------3---5-----------3---|
|                                |                            .   |
(Guitar2)------------------------|--------------------------------|
|1514--15----1512--15------------|------1215------14----12--------|
|--------11----------11----------|----11----------------------14--|
|--------------------------------|--12----------------------------|
|--------------------------------|14------------------------------|
|--------------------------------|*Sweep--------------------------|

* I'm not sure about (Guitar 3), it plays the same tune but higher, like above.


(Guitar1)------------------------|--------------------------------|
|--------------------------------|--------------------------------|
|--------------------------------|--------------------------------|
|4-------------------------------|2-------------------------------|
|4-------------------------------|2-------------------------------|
|2-------------------------------|0-------------------------------|
|                                |                                |
(Guitar2)------------------------|--------------------------------|
|1412--14----1412--14------------|14----1412----------------------|
|--------11----------11----------|--1111----------14----13--------|
|--------------------------------|----------------------------14--|
|--------------------------------|--------------------------------|
|--------------------------------|--------------------------------|
|                                |                                |
|1412--14-----1412-14------------|14----14------------------------|
|--------14----------14----------|--1414--12------15----14--------|
|--------------------------------|----------------------------14--|
|--------------------------------|--------------------------------|
|--------------------------------|--------------------------------|
(Guitar3)------------------------|--------------------------------|


Outro :
-------

(Guitar2)------------------------|
|1514----------------------------|
|------1413----------------------|
|------------1412----------------|
|------------------1412--11-12-14|
|--------------------------------|

* I'm not sure about (Guitar 1 or 3). 


 Acoustic (Let Ring)
|----------------|----------------|----------------|----------------|
|----------------|----------------|----------------|----------------|
|----2-----2-----|----2-----2-----|----2-----2-----|----------------|
|--4-----4-----4-|--4-----4-----4-|--4-----4-------|--4-7-------7---|
|----------------|----------------|2-----2-----2---|----------9-----|
|2-----2-----2---|0-----0-----0---|--------------2/|3-----3/5-----3-|
|                |                |                |                |
(Guitar1)--------|----------------|----------------|----------------|
|----------------|----------------|----------------|----------------|
|----------------|----------------|----------------|----------------|
|4---------------|----------------|----------------|----------------|
|4---------------|----------------|----------------|----------------|
|2---------------|----------------|----------------|----------------|
|                |                |                |                |
(Guitar2)--------|----------------|----------------|----------------|
|----------------|----------------|----------------|----------------|
|----------------|----------------|----------------|----------------|
|----------------|----------------|----------------|----------------|
|\9--------------|----------------|----------------|----------------|
|----------------|----------------|----------------|----------------|


|----------------|----------------|2---------------|----------------|
|----------------|----------------|2---------------|----------------|
|----------------|----------------|2---------------|----------------|
|----0---0-------|----0---0-------|4---------------|----------------|
|--4---4---4---4-|--4---4---4---4-|4---------------|----------------|
|2-----------2---|2-----------2---|2---------------|----------------|
|                |                |                |                |
(Guitar2)--------|----------------|----------------|----------------|
|----------------|----------------|----------------|----------------|
|----------------|----------------|9b11------------|----------------|
|----------------|----------------|----------------|----------------|
|----------------|----------------|----------------|----------------|
|----------------|----------------|----------------|----------------|

--
+---------------------------------------------+----------------------------+
| Lee Metcalfe                                | E-Mail: scm2lm@cm.cf.ac.uk | 
| University of Wales, College of Cardiff     |    Irc: Bud3              / 
| Tied to machines that make me be -Metallica | XPilot: Bud3             /
+---------------------------------------------+-------------------------':)


from: jamesj@svpal.org
 
Megadeth-A Tout Le Monde
 

Clean tone bit
|-----------------------------------------------------------------------|
|-----------------------------------------------------------------------|
|--------2---------2-----------------2------2---------------------------|
|-----------------------------------------------------------------------|
|----4---------4---------4------4--------4--------4---------------------|
|-2---------2---------2------0--------0--------0------------------------|
                                                   
|-----------------------------------------------------------------------|
|-----------------------------------------------------------------------|
|-------2------2------------2------------2------------------------------|
|----4-------4----4------0------------2---------------------------------|
|-2--------2-----------------------0------------------------------------|
|-------------------2/3---------3------------3--------------------------|
                                              
              
Pre-Chorus    
       P.M....                         P.M........
|-----------------------------------------------------------------------|
|-----------------------------------------------------------------------|
|---------------2-----------2h4---------2---4---------------------------|
|-4-----2---4---2-----------2h4---------2---4--------4------------------|
|-4-----2---4---0---------X--------------------------4------------------|
|-2--------------------------------------------0-----2------------------|

P.M.      P.M...                P.M.              
|-----------------------------------------------------------------------|
|-----------------------------------------------------------------------|
|----------------2-----------4----2-4------7-7-7-7-7-7-7-7-7-7-7-7-7-7--|
|----4-----2--4--2-----------4----2-4------7-7-7-7-7-7-7-7-7-7-7-7-7-7--|
|----4-----2--4--0---------X-2------2--X---5-5-5-5-5-5-5-5-5-5-5-5-5-5--|
|-0--2------------------------------------------------------------------|
                                    

Chorus
Lead part   
"a tout le monde        a tout mes Amis          Je vous aime
|--------9------9------9-------7----7-----7---------7-----7-----7-------|
|----10-----10--------------9-----9---------------7----7----------------|
|-9----------------9------9------------9-------8------------8-----------|
|-----------------------------------------------------------------------|
|-----------------------------------------------------------------------|
|-----------------------------------------------------------------------|

Lead bit continued                     
"je dois partir     these are the last words I'll everr speak
|-------5----5-----5---------5----5---5--------4----4----4--------------|
|----7-----7---------------5----5-----------5-----5---------------------|
|-6-------------6-------6-----------6----6------------6-----------------|
|-----------------------------------------------------------------------|
|-----------------------------------------------------------------------|
|-----------------------------------------------------------------------|
lead bit continued
"And they'll set me free"                                    
|-------2------2----2---0-----------------------------------------------|
|----2-----2------------3-----------------------------------------------|
|-4-------------4-------2-----------------------------------------------|
|-----------------------0-----------------------------------------------|
|-----------------------------------------------------------------------|
|-----------------------------------------------------------------------|
                         
 
Ok, here's the rhythm bit for the chorus, 
                               P.M..
|-----------------------------------------------------------------------|
|-----------------------------------------------------------------------|
|--------------------4----------------------6------4---7-7-7-7-7-7-7-7-7|
|-4---------2--------4-----4---------4------6------4---7-7-7-7-7-7-7-7-7|
|-4---------2--------2-----4---------4------4------2---5-5-5-5-5-5-5-5-5|
|-2---------0--------------2-----0---2----------------------------------|


2nd verse rhythm is just the clean tone part distorted and 
palm muted, listen to the song

I can get the solo if anyone wants it, I just dont have it 
right now and it probably sucks anyways =)

     P.M...                  P.M.......
|-----------------------------------------------------------------------|
|-----------------------------------------------------------------------|
|------------4------X---4H6----4---6------------------------------------|
|-6----4-6---4------X---4H6----4---6--4-----6---------------------------|
|-6----4-6----------------------------4-----6---------------------------|
|-4-----------------------------------------4---------------------------|
                                       
 
|-----------------------------------------------------------------------|
|-----------------------------------------------------------------------|
|-------------4---------4h6-----4--6---9-9-9-9-9-9-9-9-9-9-9-9-9-9-9----|
|---6---4--6--4-----X---4h6-----4--6---9-9-9-9-9-9-9-9-9-9-9-9-9-9-9----|
|---6---4--6--------X------------------7-7-7-7-7-7-7-7-7-7-7-7-7-7-7----|
|-X-4-------------------------------------------------------------------|
                                                

duel guitar thing at the end
GTR I
|-9---------9--------9--------9-----------------------------------------|
|----12-----------------12------/14------------14---12~~~~~-------------|
|---------------11-------------------------14---------------14--13------|
|--------------------------------------14---------------------------14--|
|-----------------------------------------------------------------------|
|-----------------------------------------------------------------------|
|                                                                       |
GTR II                                                                  |
|-----------------------------------------------------------------------|
|-----------------------------------------------------------------------|
|-14--13---14--------14-13---14--11--------11-14--13---11--9------------|
|---------------11---------------------11----------------------11-------|
|-----------------------------------------------------------------------|
|-----------------------------------------------------------------------|
                                                
 GTR I
|--10--9--10------10--9---10--------------------------------------------|
|-------------------------------/15--------------12---15--14--12--10----|
|-------------11-----------------------------12-------------------------|
|----------------------------------------12-----------------------------|
|-----------------------------------------------------------------------|
|-----------------------------------------------------------------------|
|                                                                       |
| GTR II                                                                |
|-----------------------------------------------------------------------|
|--12-10--12-------12-10--12--------------------------------------------|
|--------------------------------11--------------12--16--14--12---11----|
|--------------12----------------------------12-------------------------|
|----------------------------------------12-----------------------------|
|-----------------------------------------------------------------------|
                                                
 
Heres the end of the it

GTR I
|-10--9--10--------10-9-10----------------------------------------------|
|--------------------------/15-----15-14--------------------------------|
|-------------11-------------------------14-13--------------------------|
|----------------------------------------------14-12--------------------|
|-----------------------------------------------------14--12--11--12--14|
|-----------------------------------------------------------------------|
|                                                                       |                                             
| GTR II                                                                |
|-----------------------------------------------------------------------|
|-12-10--12------12-10-12-----------------------------------------------|
|--------------------------11-------7--6--------------------------------|
|------------12---------------------------7--6--------------------------|
|-----------------------------------------------7-5---------------------|
|---------------------------------------------------7-5------4--5--7\---|
                                                
 
And the end
 
|-----------------------------------------------------------------------|
|-----------------------------------------------------------------------|
|--------2---------2-----------------2------2---------------------------|
|-----------------------------------------------------------------------|
|----4---------4---------4------4--------4--------4---------------------|
|-2---------2---------2------0--------0--------0------------------------|
                                                   
|-----------------------------------------------------------------------|
|-----------------------------------------------------------------------|
|-------2------2------------2------------2------------------------------|
|----4-------4----4------0------------2---------------------------------|
|-2--------2-----------------------0------------------------------------|
|-------------------2/3---------3------------3--------------------------|

|---------------------------------------------------~2~-----------------|
|---------------------------------------------------~2~-----------------|
|---------------------------------------------------~2~-----------------|
|---------0-----0------------------0---0------------~4~-----------------|
|-----4------4-----4-----4------4----4----4-----4---~4~-----------------|
|-2-------------------2------2---------------2------~2~-----------------|
                                                       
***********************************************************************    
Comments