Megadeth - A Tout Le Monde Chords & Tabs

 

A Tout Le Monde Chords & Tabs

Megadeth Chords & Tabs

Version: 1 Type: Bass Tab 0 ratings
1 star 2 stars 3 stars 4 stars 5 stars
comments

A Tout Le Monde Bass Tab

   
A Tout Le Monde by Megadeth
>From the album Youthanasia

Arranged for 5-string

rest for 8 bars

Gb|---------------------------------|
Db|---------------------------------|
Ab|---------------------------------|
Eb|---------------------------------|
Bb|-7-7-7-7-7-5-7-7-7-7-7-7-7-7-7-5-|

Gb|---------------------------------|
Db|---------------------------------|
Ab|---------------------------------|
Eb|---------------------------------|
Bb|-7-7-7-7-7-5-7-5-7-7-7-7-7-7-7-5-|

Gb|---------------------------------|
Db|---------------------------------|
Ab|---------------------------------|
Eb|---------------5-5-5-5-5-5-5-5-5-|
Bb|-7-7-7-7-7-5-7-------------------|

Gb|---------------------------------|
Db|---------------------------------|
Ab|---------------4-5-5-5-5-5-5-5-5-|
Eb|-7-7-7-7-7-5-7-------------------|
Bb|---------------------------------|

Gb|-----------------|
Db|-----------------|
Ab|-5-5-5-5-5-5-5-5-|
Eb|-----------------|
Bb|-----------------|

Gb|---------------------------------|
Db|---------------------------------|
Ab|---------------------------------|
Eb|---------------------------------|
Bb|-7-7-7-7-7-7-7-7-5-5-5-5-5-5-5-5-|

Gb|---------------------------------|
Db|---------------------------------|
Ab|---------------------------------|
Eb|-7-7-7-7-7-7-7-5-----------------|
Bb|-----------------7-7-7-7-7-7-7-7-|

Gb|---------------------------------|
Db|---------------------------------|
Ab|-----------------4-4-4-4-4-4-4-4-|
Eb|-5-5-5-5-5-5-5-7-----------------|
Bb|---------------------------------|

Gb|---------------------------------|
Db|---------------------------------|
Ab|---------------------------------|
Eb|-7-7-7-7-7-5-4-2-----------------|
Bb|-----------------3-3-3-3-3-3-3-3-|

Gb|---------------------------------|
Db|---------------------------------|
Ab|---------------------------------|
Eb|---------------------------------|
Bb|-7-7-7-7-7-7-7-5-5-5-5-5-5-5-5-5-|

Gb|---------------------------------|
Db|---------------------------------|
Ab|---------------------------------|
Eb|-7-7-7-7-7-7-7-----------5-5-5---|
Bb|---------------7-8-8-8-8-------8-|

Gb|---------------------------------|
Db|---------------------------------|
Ab|---------------------------------|
Eb|---------------------------------|
Bb|-7-7-7-7-7-7-7-5-5-5-5-5-5-5-5-5-|

Gb|---------------------------------|
Db|---------------------------------|
Ab|---------------------------------|
Eb|-7-7-7-7-7-7-7-----------5-5-5---|
Bb|---------------7-8-8-8-8-------8-|

Gb|---------------------------------|
Db|---------------------------------|
Ab|---------------------------------|
Eb|---------------------------------|
Bb|-7-7-7-7-7-5-7-7-7-7-7-7-7-7-7-5-|

Gb|---------------------------------|
Db|---------------------------------|
Ab|---------------------------------|
Eb|-----------------------------7-9-|
Bb|-7-7-7-7-7-5-7-5-7-7-7-7-7-7-----|

Gb|---------------------------------|
Db|---------------------------------|
Ab|---------------------------------|
Eb|---------------5-5-5-5-5-5-5-5-5-|
Bb|-7-7-7-7-7-5-7-------------------|

Gb|---------------------------------|
Db|---------------------------------|
Ab|---------------4-5-5-5-5-5-5-5-5-|
Eb|-7-7-7-7-7-5-7-------------------|
Bb|---------------------------------|

Gb|-----------------|
Db|-----------------|
Ab|-5-7-5-4-5-4-----|
Eb|-------------7-5-|
Bb|-----------------|

Gb|---------------------------------|
Db|---------------------------------|
Ab|---------------------------------|
Eb|---------------------------------|
Bb|-7-7-7-7-7-7-7-7-5-5-5-5-5-5-5-5-|

Gb|---------------------------------|
Db|---------------------------------|
Ab|---------------------------------|
Eb|-7-7-7-7-7-7-7-5-----------7-9---|
Bb|-----------------7-7-7-7-7-----7-|

Gb|---------------------------------|
Db|---------------------------------|
Ab|-----------------4-4-4-4-4-4-4-4-|
Eb|-5-5-5-5-5-5-5-7-----------------|
Bb|---------------------------------|
[ Tab from: http://www.guitartabs.cc/tabs/m/megadeth/a_tout_le_monde_btab.html ]
Gb|---------------------------------|
Db|---------------------------------|
Ab|---------------------------------|
Eb|-7-7-7-7-7-5-4-2-----------------|
Bb|-----------------3-3-3-3-3-3-3-3-|

Gb|---------------------------------|
Db|---------------------------------|
Ab|---------------------------------|
Eb|---------------------------------|
Bb|-7-7-7-7-7-7-7-5-5-5-5-5-5-5-5-5-|

Gb|---------------------------------|
Db|---------------------------------|
Ab|---------------------------------|
Eb|-7-7-7-7-7-7-7-----------5-5-5---|
Bb|---------------7-8-8-8-8-------8-|

Gb|---------------------------------|
Db|---------------------------------|
Ab|---------------------------------|
Eb|---------------------------------|
Bb|-7-7-7-7-7-7-7-5-5-5-5-5-5-5-5-5-|

Gb|---------------------------------|
Db|---------------------------------|
Ab|---------------------------------|
Eb|-7-7-7-7-7-7-7-----------5-5-5-5-|
Bb|---------------7-8-8-8-8---------|

Gb|---------------------------------|
Db|---------------------------------|
Ab|---------------------------------|
Eb|-4-4-4-4-4-7-4-4-4-4-4-4-4-4-4-7-|
Bb|---------------------------------|

Gb|---------------------------------|
Db|-----------------------6---------|
Ab|---------------------------4-6---|
Eb|-4-4-4-4-4-7-4-7-4-4-4---------7-|
Bb|---------------------------------|

Gb|---------------------------------|
Db|---------------------------------|
Ab|---------------------------------|
Eb|-4-4-4-4-4---4-7-7-7-7-7-7-7-7-7-|
Bb|-----------7---------------------|

Gb|---------------------------------|
Db|---------------------------------|
Ab|-4-4-4-4-4---4-6-7-7-7-7-7-6-4---|
Eb|-----------7-------------------7-|
Bb|---------------------------------|

Gb|-----------------|
Db|-----------------|
Ab|-----------------|
Eb|-----------------|
Bb|-5-5-5-5-5-5-5-5-|

Gb|---------------------------------|
Db|---------------------------------|
Ab|---------------------------------|
Eb|---------------------------------|
Bb|-7-7-7-7-7-7-7-7-5-5-5-5-5-5-5-5-|

Gb|---------------------------------|
Db|---------------------------------|
Ab|---------------------------------|
Eb|-7-7-7-7-7-7-7-5-----------7-9---|
Bb|-----------------7-7-7-7-7-----7-|

Gb|---------------------------------|
Db|---------------------------------|
Ab|-----------------4-4-4-4-4-4-4-4-|
Eb|-5-5-5-5-5-5-5-7-----------------|
Bb|---------------------------------|

Gb|---------------------------------|
Db|---------------------------------|
Ab|---------------------------------|
Eb|-7-7-7-7-7-5-4-2-----------------|
Bb|-----------------3-3-3-3-3-3-3-3-|

Gb|---------------------------------|
Db|---------------------------------|
Ab|-----------------------7---6-4---|
Eb|-------------------------------5-|
Bb|-7-7-7-7-7-7-7-7-5-5-5-----------|

Gb|---------------------------------|
Db|---------------------------------|
Ab|---------------------------------|
Eb|-7-7-7-7-7-7-7-5---------------4-|
Bb|-----------------7-7-7-7-7-5-7---|

Gb|---------------------------------|
Db|---------------------------------|
Ab|-----------------4-4-4-4-4-4-4-4-|
Eb|-5-5-5-5-5-5-5-7-----------------|
Bb|---------------------------------|

Gb|---------------------------------|
Db|---------------------------------|
Ab|---------------------------------|
Eb|-7-7-7-7-7-5-4-2-----------------|
Bb|-----------------3-3-3-3-3-3-3-3-|

Gb|---------------------------------|
Db|---------------------------------|
Ab|---------------------------------|
Eb|---------------------------------|
Bb|-7-7-7-7-7-7-7-5-5-5-5-5-5-5-5-5-|

Gb|---------------------------------|
Db|---------------------------------|
Ab|---------------------------------|
Eb|-7-7-7-7-7-7-7-----------5-5-5---|
Bb|---------------7-8-8-8-8-------8-|

Gb|---------------------------------|
Db|---------------------------------|
Ab|---------------------------------|
Eb|---------------------------------|
Bb|-7-7-7-7-7-7-7-5-5-5-5-5-5-5-5-5-|

Gb|-----------------|
Db|-----------------|
Ab|-----------------|
Eb|-7-7-7-7-7-7-7-7-|
Bb|-----------------|

           ritenuto.....
Gb|---------------------------------|
Db|-7-6-----------------------------|
Ab|-------7-6-----------------------|
Eb|-------------7-5---4---5---7-----|
Bb|-------------------------------7-|


Comments