Megadeth - A Secret Place Chords & Tabs

 

A Secret Place Chords & Tabs

Megadeth Chords & Tabs

Version: 1 Type: Tab 0 ratings
1 star 2 stars 3 stars 4 stars 5 stars
comments

A Secret Place Tab

Megadeth- A Secret Place
Album- Cryptic Writings
Tuning:DADGBE

Intro
e--------------------------------------------------------------------------|
B--444--3------111--3-------444--3-----6----6-6/4---------444--3-----------|
G--000--0-000--000--0--000--000--0--0--0--0-0---0--00000--000--0--000------|
D--------------------------------------------------------------------------|
A--------------------------------------------------------------------------|
D--------------------------------------------------------------------------|
              1.___________________________________________________________
e--------------------------------------------------------------------------|
B-111--3-------444--3------6---6--6/8--4----------------------------------o|
G-000--0--000--000--0----0-0-0-0--0----0--00000----------------------------|
D--------------------------------------------------------------------------|
A-------------------------------------------------------------------------o|
D--------------------------------------------------------------------------|
 2.________________
e--------------------------------------------------------------------------|
B--444-3-------------------------------------------------------------------|
G--000-0--0----------------------------------------------------------------|
D------------3---3----3--5-5-----------------------------------------------|
A------------1---1----1--3-3------5---------3---------1--------------------|
D---------------------------------5---------3---------1--------------------|

e--------------------------------------------------------------------------|
B--------------------------------------------------------------------------|
G--------------------------------------------------------------------------|
D-0------------------------------------------------------------------------|
A-0------------------------------------------------------------------------|
D-0---------0000000--0000000--0000000--------------------------------------|

Verse
e--------------------------------------------------------------------------|
B--444--3------111--3-------444--3-----6----6-6/4---------444--3----------o|
G--000--0-000--000--0--000--000--0--0--0--0-0---0--00000--000--0--000------|
D--------------------------------------------------------------------------|
A-------------------------------------------------------------------------o|
D--------------------------------------------------------------------------|

e--------------------------------------------------------------------------|
B--------------------------------------------------------------------------|
G-/12--------12/10------------10/8---------8/7------7~---------------------|
D-/12--------12/10------------10/8---------8/7------7~---------------------|
A--------------------------------------------------------------------------|
D--------------------------------------------------------------------------|

Chours  (Note: This is a guitar harmony)
e--------------------------------------------------------------------------|
B-------------------------------------------------4------------------------|
G------3------------------------3--------3--5-------5--3--5-6----6-5-------|
D-5------5---------3---5-----------5---5-------5--1------------5-----------|
A---5--1--------5-----------5---1--------1--3-------3--1--3-4----4-3-------|
D-5-0----5------0--3---5----0------5---5-------5---------------5-----------|
[ Tab from: http://www.guitartabs.cc/tabs/m/megadeth/a_secret_place_tab.html ]
e-------------|
B-----------o-|
G-------------|
D----3--5-----|
A-5---------o-|
D-0--3--5-----|

Bridge
e--------------------------------------------------------------------------|
B--------------------------------------------------------------------------|
G--------------------------------------------------------------------------|
D-3-5-5----------------------5-----8----7----------------------------------|
A-1-3-3-5---------3----------3-----6----5--6----5---------3----1-----0-----|
D-------5---------3------------------------6----5---------3----1-----0-----|

e--------------------------------------------------------------------------|
B--------------------------------------------------------------------------|
G--------------------------------------------------------------------------|
D-------------------------5-----8-----7----------------8-----------7-------|
A-0-0-0-0-0-0-5--3--------3-----6-----5--6--5-----3----6-----------5-------|
D-0-0-0-0-0-0-5--3-----------------------6--5-----3------------------------|

Solo
e--------------------------------------------------------------------------|
B--------------------------------------------------------------------------|
G--------------------------------------------------------------------------|
D--------3-------------3-3h5--5b---5-3-----3--------3----------------------|
A--555555---55~--555555-----------------5------3-0-3-5~--------------------|
D--------------------------------------------------------------------------|

e--------------------------------------------------------------------------|
B--------------------------------------------------------------------------|
G-----------------------------------------------5------7---5---------------|
D--------3-------------3----3h5------5b---5b--------7----------------------|
A-555555---55~--555555----5------------------------------------------------|
D--------------------------------------------------------------------------|

e----------------------------10-----13-10----------------------------------|
B--------------10----13--10------13--------13----13----13----13----13------|
G-10----10--12----12-----------------------12b14-12b14-12b14-12b14-12b14---|
D----12--------------------------------------------------------------------|
A--------------------------------------------------------------------------|
D--------------------------------------------------------------------------|

e--------------------------------------------------------------------------|
B-13-----------------------------------------------------------------------|
G-12b14~-10h12h10-9-10-9---------------------------------------------------|
D------------------------12h10h12~---10h12h10------------------------------|
A---------------------------------------------12h10h12h10\8----------------|
D------------------------------------------------------------12------------|

e-10-----10----10----10----10----------------------------------------------|
B-13b15--13b15-13b15-13b15-13b15-------------------------------------------|
G--------------------------------------------------------------------------|
D--------------------------------------------------------------------------|
A--------------------------------------------------------------------------|
D--------------------------------------------------------------------------|

e-10h15h10--------|
B----------13-----|
G-----------------| Repat this last bar of the solo 26x
D-----------------|
A-----------------|
D-----------------|
Comments