Megadeth - 99 Ways To Die Chords & Tabs

 

99 Ways To Die Chords & Tabs

Megadeth Chords & Tabs

Version: 3 Type: Tab 0 ratings
1 star 2 stars 3 stars 4 stars 5 stars
comments

99 Ways To Die Tab

Ayeh Guitarists!

Since I'm bored lately, I thought I'd transcribe some other solo pieces
from Megadeth (Yes, again. It's their 'fault', not mine...)

Explanations:  P - pull off
               H - hammer on
               B - bend
               R - release bend
               / - slide up
               \ - slide down
               ^ - upstroke (the pick moves towards the sky. "Pull")
               v - downstroke (the pick moves towards the ground. "Push")
             (5) - let ring the indicated note, but don't pick

BE CAREFUL WITH THE STROKE DIRECTION!!!

===================================

FIRST: A piece from the second solo of 99 Ways to Die 
      (Megadeth, The Beavis and Butt-head Experience)

Note: Very fast!!!
[ Tab from: http://www.guitartabs.cc/tabs/m/megadeth/99_ways_to_die_tab_ver_3.html ]
    v  ^  v  ^  v  ^  v  ^    v  ^  v  ^  v  ^  v  ^
E|-20-15-17----15----------|-15----------15----------|
B|----------18----18-17-18-|----18-17-15----15-17----|
G|-------------------------|----------------------18-|
D|-------------------------|-------------------------|
A|-------------------------|-------------------------|
E|-------------------------|-------------------------|

    v  ^  v  ^  v  ^  v  v    ^     v  ^  v  ^     v  ^  ^
E|-------------------------|-------------------------------|
B|-15----------15-------18-|-------20-18-20-------20-18----|
G|----18-17-18----18-15(15)|-18H19----------18H19-------19-|
D|-------------------------|-------------------------------|
A|-------------------------|-------------------------------|
E|-------------------------|-------------------------------|

    v
E|-19B21-------------------|-------------------------------|
B|-------------------------|-------------------------------|
G|-------------------------|-------------------------------|
D|-------------------------|-------------------------------|
A|-------------------------|-------------------------------|
E|-------------------------|-------------------------------|
Comments