Medeski Martin And Wood - Last Chance To Dance Trance Chords & Tabs

 

Last Chance To Dance Trance Chords & Tabs

Medeski Martin And Wood Chords & Tabs

Version: 1 Type: Tab 0 ratings
1 star 2 stars 3 stars 4 stars 5 stars
comments

Last Chance To Dance Trance Tab

   
Artist            : Medeski, Martin & Wood
Album             : Last Chance to Dance Trance (Perhaps)
Song              : Last Chance to Dance Trance (Perhaps)

Transcribed by    : Tuck
Date              : 04-27-2003
E-mail            : Phishician@aol.com
URL               : 

Note              : 
Tuning            : Standard


[Intro]
e|-------------------------------------------------------------------------|
B|---------6----------------------------------6----------------------------|
G|---------7----------------------------------7----------------------------|
D|---------7----------------------------------7----------------------------|
A|---------5----------------------------------5----------------------------|
E|---------0----------------------------------0----------------------------|
Dm/A

[]
e|-------------------------------------------------------------------------|
B|---------6-----6------6--------------5-----------------------------------|
G|---------7-----7------7--------------6-----------------------------------|
D|-------------------------------------------------------------------------|
A|-----5------5------5------5------7---------------------------------------|
E|-------------------------------------------------------------------------|
this is the organ intro after the chords

[Bass Intro]
e|-------------------------------------------------------------------------|
B|-------------------------------------------------------------------------|
G|-------------------------------------------------------------------------|
D|----------------7---5-----8---7-------5----------------------------------|
A|--------5---8-------------------------------8---7--8---7----5------------|
E|----5--------------------------------------------------------------------|


[Cont.]
e|-------------------------------------------------------------------------|
B|-------------------------------------------------------------------------|
G|-------------------------------------------------------------------------|
D|-------------------------------------------------------------------------|
A|--5--7-8-7---5-------------------5---7--8--7--5--------------------------|
E|----------------------6--6--6-----------------------------5--------------|


[Cont.]
e|-------------------------------------------------------------------------|
B|-------------------------------------------------------------------------|
G|-------------------------------------------------------------------------|
D|-------------------5---7--8-7------5-------------------------------------|
A|-------5---7--8------------------------8--7---8--7-----------------------|
E|---5---------------------------------------------------------------------|


[Cont.]
e|-------------------------------------------------------------------------|
B|-------------------------------------------------------------------------|
G|-------------------------------------------------------------------------|
D|----------------------------------------8-7-5----------------------------|
A|---5----7--8--7--5----------5--8-----------8-7-5-------------------------|
E|-------------------------6-------------------------------8-7-6-5---------|

[ Tab from: http://www.guitartabs.cc/tabs/m/medeski_martin_and_wood/last_chance_to_dance_trance_tab.html ]
[Cont.]
e|-------------------------------------------------------------------------|
B|-------------------------------------------------------------------------|
G|-----7--7--9---10-9---10---7----9--7/6-----------------------------------|
D|--7----------------------------------------------------------------------|
A|-------------------------------------------------------------------------|
E|-------------------------------------------------------------------------|


[Cont.]
e|-------------------------------------------------------------------------|
B|-------------------------------------------------------------------------|
G|-7--9--10--12--10-9--7---9-10--7-----------------------------------------|
D|-------------------------------------------7-----------------------------|
A|-----------------------------------------------8---7---------------------|
E|-------------------------------------------------------------------------|


[Cont.]
e|-------------------------------------------------------------------------|
B|-------------------------------------------------------------------------|
G|---------------7---9---10--7--9--7--6---7--------------------------------|
D|-----------7-------------------------------------7--7--------------------|
A|----7--8------------------------------------------------7----5---7-------|
E|-------------------------------------------------------------------------|


[Cont.]
e|-------------------------------------------------------------------------|
B|-------------------------------------------------------------------------|
G|-------------------------------------------------------------------------|
D|------------------------7-7---------------------------7------------------|
A|---------5-5----8-8---------8-7-5------------------------------0---------|
E|-8--5-----------------------------------8---6--6-6------8--6--5----------|


[Cont.]
e|-------------------------------------------------------------------------|
B|-------------------------------------------------------------------------|
G|-------------------------------------------------------------------------|
D|-8--7--5---------------------5---7-7------5-5---------5-7----------------|
A|---------------8--7---7-8--------------8----------7-8-------8-7-5--------|
E|-------------------------------------------------------------------------|


[Cont.]
e|-------------------------------------------------------------------------|
B|-------------------------------------------------------------------------|
G|-----------7--9--9----9-10-9---7--6-6--99------6-6-6---10-9-7------------|
D|---------7------------------------------------------77-------------------|
A|-------7-----------------------------------------------------------------|
E|-5--9--------------------------------------------------------------------|


[Cont.]
e|-------------------------------------------------------------------------|
B|-------------------------------------------------------------------------|
G|------7----9---10----- 10--9--7-----10--9--7--6---------------------------|
D|-------------------------------------------------------------------------|
A|------0----0----0--------------------------------------------------------|
E|------0----0----0---0----------------------------------------------------|


[Cont.]
e|-------------------------------------------------------------------------|
B|-------------------------------------------------------------------------|
G|---7--6------------------------------------------------------------------|
D|-----------8-7---7-8---7-8-7---5-------7----7-8-7-----7------------------|
A|------------------------------------------8----------------8----5-8------|
E|-----------------------------------------------------------------------5-|
Organs And every thing comes in after this

The Chords as far as I can tell are as follows:

	Dm	A	Dm	Gm	D	Gm	A	Dm

There are definitely some variations on those, and they're probably
Minor 9s or something weird. I'll update if i figure them out.
Comments