Medeski Martin And Wood - Bemsha Swing Lively Up Yourself Chords & Tabs

 

Bemsha Swing Lively Up Yourself Chords & Tabs

Medeski Martin And Wood Chords & Tabs

Version: 1 Type: Tab 0 ratings
1 star 2 stars 3 stars 4 stars 5 stars
comments

Bemsha Swing Lively Up Yourself Tab

Artist            : Medeski, Martin, and Wood
Album             : Last chance
Song              : Bemsha Swing / Lively Up Yourself

Transcribed by    : Tuck
Date              : 04-15-2003
E-mail            : phishician@aol.com
URL               : 

Note              : 
Tuning            : Standard


[Bass Intro]
e|-------------------------------------------------------------------------|
B|-------------------------------------------------------------------------|
G|------5------------------------------------------------------------------|
D|-------------------------------------------------------------------------|
A|---3----3----------------------------------------------------------------|
E|------------4----4--3 3--3--6-6-6-6-6-6-6--------------------------------|
Bass

[Bass Riff]
e|-------------------------------------------------------------------------|
B|-------------------------------------------------------------------------|
G|-----5--------------5----------------------------------------------------|
D|-------------------------------------------------------------------------|
A|--3-----3--------3----3--------------------------------------------------|
E|------------4--3---------4--3--------------------------------------------|
BASS
[ Tab from: http://www.guitartabs.cc/tabs/m/medeski_martin_and_wood/bemsha_swing_lively_up_yourself_tab.html ]
[First Melody]
e|-------------------------------------------------------------------------|
B|----5---5--3--1----------------------------------------------------------|
G|--5---5-----------5-3-5--2-3-2-------------------------------------------|
D|-----------------------------------2--3----------------------------------|
A|-------------------------------------------------------------------------|
E|-------------------------------------------------------------------------|
I

[Melody 2]
e|-------------------------------------------------------------------------|
B|------10-----10---8--6---------------------------------------------------|
G|---10----10-------------10--8--10---6-7-6--------------------------------|
D|------------------------------------------------6------------------------|
A|-------------------------------------------------------------------------|
E|-------------------------------------------------------------------------|


[Lively up Yourself]
e|-------------------------------------------------------------------------|
B|-------------------------------------------------------------------------|
G|-------------------------------------------------------------------------|
D|---------------------3---------------------------------------------------|
A|---------3----3--6-------------3-----------------------------------------|
E|--3--6------------------3---6--------------------------------------------|
Comments