Meat Puppets - Station Chords & Tabs

 

Station Chords & Tabs

Meat Puppets Chords & Tabs

Version: 1 Type: Tab 0 ratings
1 star 2 stars 3 stars 4 stars 5 stars
comments

Station Tab

   
#----------------------------------PLEASE NOTE---------------------------------#
#This file is the author's own work and represents their interpretation of the #
#song. You may only use this file for private study, scholarship, or research. #
#------------------------------------------------------------------------------##
#

Tab/Chords/Bassline

Song Title: Station
Artist: Meat Puppets
Album: Too High Too Die
Guitar tuning: Normal tuning
Bass tuning: Normal tuning
Arranged by: Peter Lesko
Email: Tomlesko@clark.net
Notes: Bass notes are above tab and 
       they are the same notes as the 
       chords.


Solo: 
Play twice
   
   A            G            D           E          A

e|------------------------------14-17----17-14-----------|
B|-14-15-17-----12-14-15-----15----------------17-14-----|
G|--------------------------------------------------14---|
D|-------------------------------------------------------|
A|-------------------------------------------------------|
E|-------------------------------------------------------|

      E         A

e|----17-14------------|
B|---------17-14-------|
G|--------------14---14|
D|-----------------16--|
A|---------------------|
E|---------------------|

Variation at the end of the song:

      A        G          D              E     A       E     A

e|---------------------------------------------------------------------------|
B|----17vvvvvvv-----------12----14---15--14vvvvv-----------------------------|
G|---------------------------------------------------------------------------|
D|---------------------------------------------------------------------------|
A|---------------------------------------------------------------------------|
E|---------------------------------------------------------------------------|


Interlude: 

  A                   B          D                      A            E (open)
[ Tab from: http://www.guitartabs.cc/tabs/m/meat_puppets/station_tab.html ]
e|17-----------------------------19------------------------------------|
B|17---------------17-16-----------19-19-19191919-17--------------17---|
G|14---------12/16-------16---16---------------------19-18--18-19----16|
D|14-------------------------------------------------------------------|
A|---------------------------------------------------------------------|
E|---------------------------------------------------------------------|

  A                   B           D        A                     E (open)

e|17---------------------------------------19---------------------|
B|17---------------17-16----------19-18-19---19-17-17--------17---|
G|14---------12/16-------16---16-----------------------18-19----16|
D|14--------------------------------------------------------------|
A|----------------------------------------------------------------|
E|----------------------------------------------------------------|

Intro:
(Figure 1)

Verse

Note: On the last time you play the solo
      you play the normal part twice and
      then you play the variation and the
      normal part again

Chords:

    A5    B5    D5    E5    C#5   C#5 (Variation)
e|-----|-----|-----|-----|------|-12-------------|
B|-----|-----|-----|-----|------|-12-------------|
G|-----|-----|--7--|--9--|------|-11-------------|
D|--7--|--9--|--7--|--9--|--11--|-11-------------|
A|--7--|--9--|--5--|--7--|--11--|-11-------------|
E|--5--|--7--|-----|-----|--9---|-9--------------|


Have fun.

PETER LESKO
tomlesko@clark.net


*****************************************************************************************************

*****************************************************************************************************


Date: Sat, 5 Oct 1996 14:33:26 -0700 (PDT)
From: "B. Peterson" 
Subject: Meat Puppets/Station


Regarding a transcription of the Meat Puppets song "Station"
The intro seems to "flow" better thusly:

---------------------------------14-17--------17-14-----------
-14-15-17---------14-15-------15--------------------17-14-----
---------------16-----------------------------------------14--
--------------------------------------------------------------
--------------------------------------------------------------
--------------------------------------------------------------
       (H)           (H)            (H)          (P)   (P)



Thanks, keep up the good work, and Gimme more Meat Puppets!

Brook
Comments