Meat Puppets - Lake Of Fire Chords & Tabs

 

Lake Of Fire Chords & Tabs

Meat Puppets Chords & Tabs

Version: 1 Type: Tab 1 rating
1 star 2 stars 3 stars 4 stars 5 stars
comments

Lake Of Fire Tab

Lake Of Fire
Tune Down 1/2 a step
intro
e--------------------------------------)-(-)-(-------------------------------  
b--3--3------------3------3----3--x---5--(5)--(5)--3-------------------------
g--3--3------------3-----------x--x---5--(5)--(5)--3--0--------------------3-
d--5--5---5\3--3---3---5--5----x--x----------------------5--5--x--5\3--3---3-
a--5--5---5\3--3---1---5--5------------------------------5--5--x--5\3--3---1-
e--3--3---3\1--1-------3--3------------------------------3--3--x--3\1--1-----

e----------------------------------------------------------------------------       
b-----------------------------------------11----11----11-----11-----11\------
g-----5------------------------------3/10----10----10----10-----10-----------    
d--5--5--x---3--3--5---5-----------------------------------------------------
a--3--3--x---3--3--5---5---5\3--3/5------------------------------------------
e------------1--1--3---3---3\1--1/3------------------------------------------

e----------------------------------------------------------------------------
b-----6----6-----6/8---------------------------------------------------------
g--5----5-----5----7---------------------------------------------------------
d----------------------------------------------------------------------------
a----------------------------------------------------------------------------
e----------------------------------------------------------------------------
 verse                             
e------------------------------)-(-)-(---------------------------------------
b-----------------------------5--(5)--(5)--3---------------------------------  
g-----------------------------5--(5)--(5)--3----------------------3/---------
d---------------------------------------------5--5--5---5---------3/---------
a--5--5---5\3--3/8---5--5---5-----------------5--5--5---5--3--3---1/---------
e--3--3---3\1--1/6---3--3---3--------------------3--3---3--1--1--------------     

e----------------------------------------------------------------------------  
b---------------------------------------------------11----11----11--6--6/8-8\
g--/5--5---5-----------------------------------3/10----10----10-----5--5/7-7\
d--/5--5---5--3--3--5--------------------------------------------------------
a--/3--3---3--3--3--5--5-5-5-5-5-5-5-5-3--8\5--------------------------------
e-------------1--1--3--3-3-3-3-3-3-3-3-1--6\3--------------------------------
                       PM--------------------                       then
e--1--1---1--1-----1--1----------1--1----------------------------------------
b--3--3---3--3--3--1--1------0---3--3---3--2--2---2--------------------------
g--2--2---2--2--3--3--3---3--0---2--2---2--2--2---2--------------------------
d--0--0------0-----3--3----------0--0---0--2--2---2--------------------------
a------------------------------------------0--0---0--------------------------
e---------------------------------------------------------------------------- 
[ Tab from: http://www.guitartabs.cc/tabs/m/meat_puppets/lake_of_fire_tab.html ]
e--1--1------------------------------------5--5------------------------------
b--3--3---0--1--1---1/3--3---3---3---------6-----5^6^5-----------------------
g--2--2---0--3--3---3/5--5---5---5--7--7---7-----------7---------------------
d--0--0------3--3---3/5--5---5---5--7--7---7-------------7-------------------
a------------1--1---1/3--3---3---3--5--5---5---------------------------------
e----------------------------------------------------------------------------   
 after 3rd time verse is played
e----------------------------------------------------------------------------
b----------------------------------------------------------------------------
g--------------------------------------------------3-------------------------
d--------------------------------------------------3--5----------------------
a--5-5-5-5-5-5-5-5-3--8\5--5-5--5-5-5-5-5-5-5-5-3--1--5----------------------
e--3-3-3-3-3-3-3-3-1--6\3--3-3--3-3-3-3-3-3-3-3-1-----3----------------------
   PM--------------------------------------------------
                                 
e----------------------------------------------------------------------------
b-------11----11-11----11----11---11--6---6---6/8----------------------------
g--3/10----10-------10----10---10-------5---5---7----------------------------  
d----------------------------------------------------------------------------
a----------------------------------------------------------------------------
e---------------------------------------------------------------------------- 

e----------------------------------------------------------------------------
b--8/11-11-11-11---11---11---11----11\6--6---6---6--8------------------------
g--7/10---------10----10---10---10---------5---5----7------------------------
d----------------------------------------------------------------------------
a----------------------------------------------------------------------------
e----------------------------------------------------------------------------
 solo
e------3-----)--3--------------------------------------------------------)---
b--2/3---3--6------6----------------------------------------------------3----
g---------------------5--3----------------------------------------------3----
d--------------------------5--3---------------------------------3--3^5----5--
a-------------------------------5--4--3----------------3--4--5---------------
e---------------------------------------6--3--3---3--6-----------------------

e----------------------------------------------------------------------------
b---------6---6----------------------------------------------------8-----2/3-
g--3--5^7---7----7\5--3----------------------------------------5/7----7\-----
d------------------------5--5--3----3----3-----------------------------------
a---------------------------------5----5----5--3-----------------------------
e-------------------------------------------------6--3--3--3-----------------

e--3-------------------------------------------------------------------------                         
b-----3--6----3-------------3----------3-----3-------------------------------
g----------5----3--5--------3----------3-----3-------------------------------
d----------------------3--5----5--3^5----5------5--3-------------------------
a-----------------------------------------------------5--4--3----------------
e---------------------------------------------------------------6--3---3--6--

e----------------------------------------------------------------------------
b----------------------------------------------------------------------------
g----------------------------------------------------------------------------
d-----------3--3^5-----------------------------------------------------------
a--3--4--5----------3--------------------------------------------------------
e----------------------6--3--------------------------------------------------
Comments