Meat Puppets - Flaming Heart Chords & Tabs

 

Flaming Heart Chords & Tabs

Meat Puppets Chords & Tabs

Version: 2 Type: Tab 0 ratings
1 star 2 stars 3 stars 4 stars 5 stars
comments

Flaming Heart Tab

Flaming Heart
Written by Curt Kirkwood

Main Riff:
-----------------------------------------------|
-3--3--------3--3--------3--3--------1-----1---|
-2--2--------2--2--------2--2--------0-----0---|
-0--0--------0--0--------0--0--------3-----2---|
-------0^3---------0^3---------0^3---3-----3---|
-----------------------------------------------|

Verse:
--------------------------------------------------|
-3--3--------3--3--------3--3--------3---3--------|
-2--2--------2--2--------2--2--------2---2--------|
-0--0--------0--0--------0--0--------0---0--------|
-------0^3---------0^3---------0^3----------0^3---|
--------------------------------------------------|

------------------------------------------------------|
-------3-------------3-------3--3---------3--3--------|
-----0-----0-------0-----0---2--2---------2--2--------|
---2-------------0-----------0--0---------0--0--------|
-3-------------2-------------------0^3----------0^3---|
------------------------------------------------------|

Chorus:
---------------------------------------------|
-1-----x1--1-----x1--3--3--------3--3--------|
-0-----x0--0-----x0--2--2--------2--2--------|
-3-----x3--2-----x2--0--0--------0--0--------|
-3-----x3--3-----x3--------0^3----------0^3--|
---------------------------------------------|

-----------------------------------------------------|
-------1-------------1-------3--3---------3--3-------|
-----0-----0-------0-----0---2--2---------2--2-------|
---3-------------2-----------0--0---------0--0-------|
-3-------------3-------------------0^3----------0^3--|
-----------------------------------------------------|

Lead One:
-----------------------------------------------------------------|
-------------7-8-10-8-7---7----------------------------1-------0-|
-7--7--7/9-9------------9---9-7-5-7-5-44-2-4-2-0-----0-------0---|
-7--7----------------------------------------------3-------2-----|
-5--5--------------------------------------------3-------3-------|
-----------------------------------------------------------------|

Lead Two:
----------------------------------------------------------------|
-------------7-8-7-8-7---7---------------------------1-------1--|
-7--7--7/9-9-----------7---7-5-7-5-4-2--4^2^0------0-------0----|
-7--7--------------------------------------------3-------2------|
-5--5------------------------------------------3-------3--------|
----------------------------------------------------------------|

-----------------------------------------------------------------|
------------------------5-7-5---5----------------------1-------1-|
----7----7^5^4---4-5-7--------7---7-5-44---4\2^0-----0-------0---|
----7----------7-------------------------7---------3-------2-----|
-5-----------------------------------------------3-------3-------|
-----------------------------------------------------------------|

Bridge:
---------------------------------------------|
-3--3----3--6--6----6--8----6----6--6-----6--|
-2--2----2--5--5----5--7----7----3--3-----3--|
-0--0----0--3--3----3--5----5----3--3-----3--|
---------------------------------------------|
---------------------------------------------|

---------------------------------------------|
-3--3----3-----------------------3--3-----3--|
-2--2----2--2--2----2--4----4----3--3-----3--|
-0--0----0--3--3----3--5----3----3--3-----3--|
------------3--3----3--5----5----1--1-----1--|
------------1--1----1--3----3----------------|

Lead Three:
-----------------------------------------------------------------|
----------7-8-7---7------------------------------------1-------1-|
-7--7/9-9-------7---7-5^4---4^5-4---4-77-5^4-2-0-----0-------0---|
-7--------------------------------7----------------3-------2-----|
-5-----------------------------------------------3-------3-------|
-----------------------------------------------------------------|
[ Tab from: http://www.guitartabs.cc/tabs/m/meat_puppets/flaming_heart_tab_ver_2.html ]
------------------------------------------------------------------|
--------------------------------------------------------1-------1-|
-7--7--7^5^4---4-5---4---4-7-5^4---4------------------0-------0---|
-7--7--------7---------7---------7---7--5-7-5-5-----3-------2-----|
-5--5---------------------------------------------3-------3-------|
------------------------------------------------------------------|

Variation of Chorus:
----------------------------------------------|
-----------1-----x1--3--3--------3--3---------|
-2-----x2--0-----x0--2--2--------2--2---------|
-3-----x3--2-----x2--0--0--------0--0---------|
-3-----x3--3-----x3--------0^3----------0^3---|
-1-----x1-------------------------------------|

Lead Four:
------------------------------------------------------------------|
------------------5-7---5-7-8/10-8-7-5--x-5-------------1-------1-|
-7--7-5-4-----4-7-----7---------------------8-7-5-----0-------0---|
-7--------5-7---------------------------------------3-------2-----|
-5------------------------------------------------3-------3-------|
------------------------------------------------------------------|

---------------------------------------------------------------|
-----------------------------------------------------1-------1-|
-7---7-5-4---4-5------4-7-5-4---4^5-4----\2^0------0-------0---|
-7---------7------------------7------------------3-------2-----|
-5---------------------------------------------3-------3-------|
---------------------------------------------------------------|

-----------------------------------------------------------------|
------------------------5-7---5-8-7-5----5-------------1-------1-|
----7---7---5-4---4-5-7-----7---------77---7-5-4-----0-------0---|
----7-----------7----------------------------------3-------2-----|
-5-----------------------------------------------3-------3-------|
-----------------------------------------------------------------|

--------------------------------------------------------------|
----------------------------------------------------1-------1-|
----7---7----7/9-9--7--5-4---4^5^4-4----5-4-------0-------0---|
----7----------------------7--------------------3-------2-----|
-5--------------------------------------------3-------3-------|
--------------------------------------------------------------|

----------------------------------------------------------------|
---------------------7-----7-8/10--10----10---\-------1-------1-|
-7---7/9-----4-5-7/9---7-9--------------------------0-------0---|
-7---------7--------------------------------------3-------2-----|
-5----------------------------------------------3-------3-------|
----------------------------------------------------------------|

---------------------------------------------------------|
----------7--8--7---7--------------------------1-------1-|
-7---7/9----------7---7/9--7-\5^4-5^4--------0-------0---|
-7-----------------------------------------3-------2-----|
-5---------------------------------------3-------3-------|
---------------------------------------------------------|

------------------------------------------------------|
------------------------------------------------------|
-7---7---7-5-4---4-5-2^4----0---0-0^2-44-5-7-5-4--5---|
-7---7---------7----------2---2-----------------------|
-5---5------------------------------------------------|
------------------------------------------------------|

----------------------------------------------------|
----------------------------------------------------|
-7---7---7-5-4---4-5-7/9---------4-5-4----4---------|
-7---7---------7---------------7--------7---7-5-----|
-5---5----------------------------------------------|
----------------------------------------------------|

--------------------------0-------|
----------1-----------1---3-------|
-------0-----------0------2-------|
----3-----------2---------0-------|
-3-----------3------------0-------|
----------------------------------|


Tab submit by: Halvor Wold, please email me for more tabs!!! it`s
wold.halvor@organizer.net
Peace all Meat Puppets fans!!!!
Comments