Meat Puppets - Collection Album Chords & Tabs

 

Collection Album Chords & Tabs

Meat Puppets Chords & Tabs

Version: 1 Type: Tab 0 ratings
1 star 2 stars 3 stars 4 stars 5 stars
comments

Collection Album Tab

   
Meat Puppets I (tabbed by "Halvor Wold")
**************

Blue-Green God
--------------
Intro Chord: D

Verse lick:
D-------7---------------------------------
A----5-----5-----4---7---5----------------
E-------------5--------------------------- x2

-x2 with solo-licks-

D-------7---------------------------------
A----5-----5-----4---7---5----------------
E-------------5--------------------------- x7

-x1 with solo-licks-

Chorus Chords: 
D5 - E - C - D5
Am - C - G

D-------7---------------------------------
A----5-----5-----4---7---5----------------
E-------------5--------------------------- x1

+ Solo (3 x verse)

Verse x8 (with extra licks)

Chorus

Verse x4 (end with solo-lick)

end-note:
G-----4^-----|

******************************************************
Electromud:
------------

Chords:

G--8---------
D--8--3--6---
A--6--3--6---
E-----1--4--- x4

D---9----3------
A---9----3------
E---7----1------ x4

G--8---------
D--8--3--6---
A--6--3--6---
E-----1--4--- x4

D---9----3------
A---9----3------
E---7----1------ x4

B---6---5---8---6p5-------
G---------------------5--- x4

D---9----3------
A---9----3------
E---7----1------ x4

G--8---------
D--8--3--6---
A--6--3--6---
E-----1--4--- x4

*********************************************************
Litterbox
---------

e------------------------------
B-------0h1--0-----------------
G---4----------2---------------
D-------------------3/5--------
A-------------------3/5--------
E-------------------1/3-------- x2

e------------------------------
B----5---6---5-----------------
G------------------------------
D-------------------3/5--------
A-------------------3/5--------
E-------------------1/3-------- x1

e------------------------------
B-------0h1--0-----------------
G---4----------2---------------
D-------------------3/5--------
A-------------------3/5--------
E-------------------1/3-------- x1

G----5-----------
D----5---3---5---
A----3---3---5---
E--------1---3--- x2

e------------------------------
B-------0h1--0-----------------
G---4----------2---------------
D-------------------3/5--------
A-------------------3/5--------
E-------------------1/3-------- x2

D - G-A
D - G-A
D - G-A - D...

A - G x4

e------------------------------
B-------0h1--0-----------------
G---4----------2---------------
D-------------------3/5--------
A-------------------3/5--------
E-------------------1/3-------- x3

e------------------------------
B-------0h1--0-----------------
G---4----------2---------------
D-------------------3-5-7-------
A-------------------3-5-7-------
E-------------------1-3-5------- x1

**********************************************************
Lover Offering
--------------

A--3--2--3----5--8--5----
E--1--0--1----3--6--3----

A--3--2--3----5----
E--1--0--1----3----

---> x6

e-----------------------------------------------------------
B---15-----------15-----------15-----------15---------------
G-------14--12-------14--12-------14--12-------14--12-------

G---9---------9----------11----------11-----------
D------9---------9-----------13----------13-------
A---------10--------10-----------14----------14---
E-------------------------------------------------

G---9---------9----------7---------7--------------
D------9---------9----------9---------9-----------
A---------10--------10---------10--------10-------
E-------------------------------------------------

G---9---------9----------11----------11-----------
D------9---------9-----------13----------13-------
A---------10--------10-----------14----------14---
E-------------------------------------------------
[ Tab from: http://www.guitartabs.cc/tabs/m/meat_puppets/collection_album_tab.html ]
G---9---------9----------7---------7--------------
D------9---------9----------9---------9-----------
A---------10--------10---------10--------10-------
E-------------------------------------------------

G---5--------5---------
D------7--------7------
A---------8--------8---
E----------------------

e-----------------------------------------------------------
B---15-----------15-----------15-----------15---------------
G-------14--12-------14--12-------14--12-------14--12-------


A--3--2--3----5--8--5----
E--1--0--1----3--6--3----

A--3--2--3----5----
E--1--0--1----3----

---> x6

e-----------------------------------------------------------
B---15-----------15-----------15-----------15---------------
G-------14--12-------14--12-------14--12-------14--12-------

e-----------------------------------
B---15-----------15-----------15~~--
G-------14--12-------14--12---------

******************************************************************''  
Meat Puppets
------------

e--------------------------------------
B---------------5---5h7p5--------------
G------------------------7p4-----------
D-----------------------------7p5------
A----------------------------------7---
E----0--3p0---------------------------- x10

e--------------------------------------
B--------------------------------------
G---8--8p6h8--8^8----6--8--9--7--4^4---
D--------------------------------------

e--------------------------------------
B--------------------------------------
G---8--8p6h8--8^8----------------------
D--------------------7/4---------------

e--------------------------------------
B---------------5---5h7p5--------------
G------------------------7p4-----------
D-----------------------------7p5------
A----------------------------------7---
E----0--3p0---------------------------- x8

e--------------------------------------------------
B--------------------------------------------------
G---8--8p6h8--8^8----4^4---2---8^8---6---4^4---2---
D--------------------------------------------------

A - G - E x2
D - A - G
A - G - E
D - A - C - G x4

e--------------------------------------
B---------------5---5h7p5--------------
G------------------------7p4-----------
D-----------------------------7p5------
A----------------------------------7---
E----0--3p0---------------------------- x4

e--0---
B--0---
G--1---
D--2---
A--2---
E--0---

********************************************************
Melons Rising
-------------

e-------------------------------------------------10--11---
B-----------------------------------------10--11-----------
G----------------------------------7--8--------------------
D----------------------------7--8--------------------------
A---------5--6--------5--6---------------------------------
E---5--6--------5--6---------------------------------------


G--9---12---4-7-9---
D--9---12---4-7-9---
A--7---10---2-5-7--- 
E-------------------x2

G--------------
D--6--5--3/5---
A--6--5--3/5---
E--4--3--1/3--- x2

G----------------
D--9--4--3--10---
A--9--4--3--10---
E--7--2--1---8--- 

G----------------
D--9--8--7--6----
A--9--8--7--6----
E--7--6--5--4----

*everything, one more time!!*

********************************************************* 
Milo, Sorghum & Maize
---------------------


e-----7-----------------------------------------------
B--7--7--7--8--7---5--5--7--5---5/7--7--8--7--8--10---
G--8-----7--7--7---5--5--5--5---5/7--7--7--7--7---7---
D-----------------------------------------------------
A-----------------------------------------------------
E-----------------------------------------------------


e--10--10/14\10--------------------------------
B---7---7--------10--10--7--7------------------
G---7---7---------7---7--7--7------------------
D-------------------------------10--10--7--7---
A--------------------------------7---7--7--7---
E----------------------------------------------

G----------------(7'8)---
D---------(5'6)----------
A--(5'6)-----------------
E------------------------ 	
Comments