Meat Puppets - Backwater Chords & Tabs

 

Backwater Chords & Tabs

Meat Puppets Chords & Tabs

Version: 3 Type: Tab 1 rating
1 star 2 stars 3 stars 4 stars 5 stars
comments

Backwater Tab

Meat Puppets - Backwater
 Too High To Die 

  Solo 1
e|-----------------7----------------------------------------------------|
B|---------5h7--7b---7b--5--7br-5-------5-----5-7-7b-7br-5-7-5-7br-5-7-5|
G|-----4h6------------------------6-4-6---6-4---------------------------|
D|-4h6------------------------------------------------------------------|
A|----------------------------------------------------------------------|
E|----------------------------------------------------------------------|

 Part 1
e|----------------------------------------------------------------------|
B|----------------------------------------------------------------------|
G|-------------------------------5-5--5-5-5-5---------------------------|
D|-2-2--2-2-2-2---4-4--4-4-4-4---5-5--5-5-5-5---2-2--2-2-2-2------------|
A|-2-2--2-2-2-2---4-4--4-4-4-4---3-3--3-3-3-3---2-2--2-2-2-2------------|
E|-0-0--0-0-0-0---2-2--2-2-2-2------------------0-0--0-0-0-0------------|

  Part 2
e|------0-------4-----------3------------------5------------------------|
B|------0-------5---------5---5--------------7---7----------------------|
G|------1-------6-------5-------5----------7-------7--------------------|
D|-2-2--2-------6-----5-----------5------7-----------7------------------|
A|-2-2--2--4-4--4---3------------------5--------------------------------|
E|-0-0--0---------------------------------------------------------------|

  Bridge
e|-------------8-------------------------10-----------------------------|
B|----------10---10-------------------12----12--------------------------|
G|-------10---------10-------------12----------12-----------------------|
D|----10---------------10-------12----------------12--------------------|
A|--8------------------------10-----------------------------------------|
E|----------------------------------------------------------------------|

e|----------2-----------------3-----------------3----------------5------|
B|--------4---4-------------5---5-------------5---5------------7---7----|
G|------4-------4---------5-------5---------5-------5--------7-------7--|
D|----4-----------4-----5-----------5-----5-----------5----7-----------7|
A|--2-----------------3-----------------3----------------5--------------|
E|----------------------------------------------------------------------|

e|----------2-----------------3-----------------3----------------5------|
B|--------4---4-------------5---5-------------5---5------------7---7----|
G|------4-------4---------5-------5---------5-------5--------7-------7--|
D|----4-----------4-----5-----------5-----5-----------5----7-----------7|
A|--2-----------------3-----------------3----------------5--------------|
E|----------------------------------------------------------------------|
[ Tab from: http://www.guitartabs.cc/tabs/m/meat_puppets/backwater_tab_ver_3.html ]
  Solo 2
e|----------------------------------------------------------------------|
B|----------------------------------------------------------------------|
G|------9-11--11b-11b-11b--11-9---------9----------9-11br-11br-11br-9-11|
D|-9-11-------------------------11-9-11---11--9-11----------------------|
A|----------------------------------------------------------------------|
E|----------------------------------------------------------------------|

e|-----12----9----------------9-----------------------------------------|
B|--12----12---12-9-12----9-----12-9----9-------------------------------|
G|---------------------11---9--------11---11-9----9-11-11br-9-----------|
D|---------------------------------------------11-----------------------|
A|----------------------------------------------------------------------|
E|----------------------------------------------------------------------|
  
  Outro Solo
e|-------12-------------------------------------------------------------|
B|--9h12----12-9-12-9----9---9h12p9----9h12p9----9h12p9----9h12p9-------|
G|--------------------11------------11--------11--------11--------------|
D|----------------------------------------------------------------------|
A|----------------------------------------------------------------------|
E|----------------------------------------------------------------------|

e|----------------------------------------------------------------------|
B|----------------------------------------------------------------------|
G|-------9h11-11b--11-9----9-11-9----------9--------9-11-11b-11b-11b----|
D|--9h11----------------11--------11--9-11---11--11---------------------|
A|----------------------------------------------------------------------|
E|----------------------------------------------------------------------|

e|----------------------------------12-----12-14-12--9-12-9-------------|
B|--12-9-12--9-12-9--------------12----12------------9------12-9-12-----|
G|------------------11-9----7h9-----------------------------------------|
D|-----------------------11---------------------------------------------|
A|----------------------------------------------------------------------|
E|----------------------------------------------------------------------|

e|-9-12-14--14b--12-14-12-----------------------------------------------|
B|-----------------------14-14--9-9h11p9--9-----------------------------|
G|--------------------------------------11-11-9-11-9--------9-11h13-11-9|
D|------------------------------------------------------9-11------------|
A|--------------------------------------------------9h11----------------|
E|----------------------------------------------------------------------|

Order 
Solo 1 x2
Part 1 x2 
Part 2 x2
Part 1 x2
Part 2 x2
Bridge
Solo 2
Part 1 x2
Part 2 x3
Outro Solo
Comments