Me First And The Gimme Gimmes - Tomorrow Chords & Tabs

 

Tomorrow Chords & Tabs

Me First And The Gimme Gimmes Chords & Tabs

Version: 1 Type: Bass Tab 0 ratings
1 star 2 stars 3 stars 4 stars 5 stars
comments

Tomorrow Bass Tab

Song: Tomorrow         Band:   Me First and the Gimme Gimmes
CD: Are a Drag

> Means Play a lot of times

       Intro                         Play Twice
D-----------------------------------------------------------
A-3>------3-3----3>--3-3-x-x-x-x-2-2-x-x-3-3-----3-3-----3>-
E----1-1------3-3----------------------------1-1-----3-3----


"The Sun comes out"             Play Twice
D---------2-2-2-2-3-3-3-3----------------------------------------
A-3-3-3-3-----------------3-3-3-3--------------------------------
E---------------------------------3-3-3-3-1-1-1-1-0-0-0-0-1-1-1-1
[ Tab from: http://www.guitartabs.cc/tabs/m/me_first_and_the_gimme_gimmes/tomorrow_btab.html ]
"Im Stuck in a day"                 Play Once
D------------------3-3-3-3-3-3-3-3-------------------
A-3-3-3-3-3-3-3-3------------------------------------
E----------------------------------1-1-1-1-1-1-1-1-0>            

"The sun'll come out"     Play Once
D---------2-2-2-2-3-3-3-3----------------------------------------
A-3-3-3-3-----------------3-3-3-3--------------------------------
E---------------------------------3-3-3-3-1-1-1-1-0-0-0-0-1-1-1-1


"Tomorrow!" 1st time
D----3-3-3-3-----------------------------------------
A-3>---------3-3-3-3---------------------------------
E---------------------1-1-1-1-0-0-0-0-1-1-1-1-1-1-1-1


"Tomorrow!" second time he says it
D----------------------------------------------
A-3-3-2-2-3-3----------------------------------
E-------------1--------------------------------

During Solo      Play Twice
D---------2-2-2-2-3-3-3-3--------
A-3-3-3-3-----------------3-3-3-3
E--------------------------------

Ending
A----3-3
E-1-----
Comments