Me First And The Gimme Gimmes - Somewhere Over The Rainbow Chords & Tabs

 

Somewhere Over The Rainbow Chords & Tabs

Me First And The Gimme Gimmes Chords & Tabs

Version: 1 Type: Bass Tab 0 ratings
1 star 2 stars 3 stars 4 stars 5 stars
comments

Somewhere Over The Rainbow Bass Tab

SOMEWHERE OVER THE RAINBOW - ME FIRST AND THE GIMME GIMMES


Written by Thanx 4 The Heads Up

INTRO

G|-------------------------------|
D|-------------------------------|
A|-7777777--3333333--5555--8888--|
E|-------------------------------|

CHORUS

  Somewhere Over the Rainbow way up high

G|----------------------------------------|
D|----------------------------------------|
A|-----------22222222--33333333-----------|
E|-33333333----------------------33333333-|

  There's a land that I heard of once in a lull-a-bye

G|----------------------------------------|
D|----------------------------------------|
A|-33333333--------7777--0000--2222-------|
E|-----------3333--------------------3----|

  Somewhere Over the Rainbow skies are blue

G|----------------------------------------|
D|----------------------------------------|
A|-----------22222222--33333333-----------|
E|-33333333----------------------33333333-|

  And the Dreams that you dare to dream really do come true

G|----------------------------------------|
D|----------------------------------------|
A|-33333333--------7777--0000--2222-------|
E|-----------3333--------------------3----|

VERSE

Some day I'll wish upon a star and wake up where the clouds are far behind...me
[ Tab from: http://www.guitartabs.cc/tabs/m/me_first_and_the_gimme_gimmes/somewhere_over_the_rainbow_btab.html ]
G|----------------------------------------|
D|----------------------------------------|
A|-----------33333333------------55555555-|
E|-33333333------------33333333-----------|

Where troubles melt like lemon drops away above the 
chimney tops thats where you'll find me

G|----------------------------------------|
D|----------------------------------------|
A|-------------------------------55555----|
E|-33333333--22222222--55555555-----------|

CHORUS

  Somewhere Over the Rainbow blue birds fly

G|----------------------------------------|
D|----------------------------------------|
A|-----------22222222--33333333-----------|
E|-33333333----------------------33333333-|

  Birds fly over the Rainbow why then oh why can't I?

G|----------------------------------------|
D|----------------------------------------|
A|-33333333--------7777--0000--2222-------|
E|-----------3333--------------------3----|

SOLO (Bass plays this while solo is being played)

G|----------------------------------------|
D|----------------------------------------|
A|-----------22222222--33333333-----------|
E|-33333333----------------------33333333-|

VERSE

  If happy little blue birds fly across the rainbow why oh why can't I-eeeeeee?

G|----------------------------------------|
D|----------------------------------------|
A|-----------33333333--5--3--2--0---------|
E|-33333333------------------------3------|


The timing is right you get need to listen to the song while 
playing this tab and it will sound perfect

This is the 100% correct tab for Somewhere Over The Rainbow


Written by Thanx 4 The Heads Up
Comments