Me First And The Gimme Gimmes - Sloop John B Chords & Tabs

 

Sloop John B Chords & Tabs

Me First And The Gimme Gimmes Chords & Tabs

Version: 1 Type: Bass Tab 0 ratings
1 star 2 stars 3 stars 4 stars 5 stars
comments

Sloop John B Bass Tab

Intro-Ramones-Teenage Lombotomy
G-------------------------------------------------------------|
D-5-7----------5-7-----------555-3---555-3---555-3---555-3-5--|
A-----55555555-----55555555--------3-------3-------3----------|
E-------------------------------------------------------------|

First Part of Verse Guitar Only...

About 00:23 bass comes in reall fast
G----------|
D----------|
A-------33-|
E-15/3*----|

Bass comes back in at 00:56
G-----------------------|
D-----5>----3>----------|
A-3>-----3>----5>-3>----|
E--------------------3>-|
[ Tab from: http://www.guitartabs.cc/tabs/m/me_first_and_the_gimme_gimmes/sloop_john_b_btab.html ]
Next Part Of Verse
G----555-----555----555--------------------------|
D-----------------------5>------3*---------------|
A-3>------3>-----3>----------3*----5*--3>----3>--|
E-----------------------------------------3>-----|

Right After That..Same Thing.But 1 change   Keep Repeating...
G----555----555----555-----444-----------|--------------------|
D-----------------------5>--------3>-----|--------------------|
A-3>-----3>-----3>-------------3>----5>--|3-333333------------|
E----------------------------------------|---------3-333333---|

End
G--------|
D-3-5----|
A-----5*-|
E--------|
Comments