Me First And The Gimme Gimmes - Seasons In The Sun Chords & Tabs

 

Seasons In The Sun Chords & Tabs

Me First And The Gimme Gimmes Chords & Tabs

Version: 2 Type: Bass Tab 0 ratings
1 star 2 stars 3 stars 4 stars 5 stars
comments

Seasons In The Sun Bass Tab

Me First and the Gimme Gimmes : Seasons in the Sun {Bass Tab}
==================================================
by T. Van Lee (th_van_lee@hotmail.com)

Verse 1
           X4         X4         X4
G|---------||---------||---------||---------6-6-4---------------|
D|-4-4-4---||-6-6-6---||-4-4-4---||-6-6-6---------6-4-----------|
A|-------4-||-------6-||-------4-||-------6---------------------|
E|---------||---------||---------||-----------------------------|

Verse 2
           X4         X4         X4
G|---------||---------||---------||---------6-6-4---------------|
D|-4-4-4---||-6-6-6---||-4-4-4---||-6-6-6---------6-4>-4>-4>-4>-|
A|-------4-||-------6-||-------4-||-------6---------------------|
E|---------||---------||---------||-----------------------------|

Chorus 1
[ Tab from: http://www.guitartabs.cc/tabs/m/me_first_and_the_gimme_gimmes/seasons_in_the_sun_btab_ver_2.html ]
G|-------------------------|
D|-4>-4>-6>-6>----------4--|
A|-------------4>-4>-4>----|
E|-------------------------|

Chorus 2

G|-------------------------------------------------|
D|-4>-4>-6>-6>----------4>-7>-7>-9>-9>----------7--|
A|-------------4>-4>-4>----------------7>-7>-7>----|
E|-------------------------------------------------|

Chorus 3

G|-------------------------------------------------|
D|-4>-4>-6>-6>----------4>-7>-7>-9>-9>----------7>-|
A|-------------4>-4>-4>----------------7>-7>-7>----|
E|-------------------------------------------------|

G|-----------------------------------------------------|
D|-8>-8>-10>-10>----------8>-8>-8>-10>-10>----------8--|
A|---------------8>-8>-8>------------------8-----------|
E|-----------------------------------------------------|

(You can also play an octave lower if you want to)
Comments