Me First And The Gimme Gimmes - Over The Rainbow Chords & Tabs

 

Over The Rainbow Chords & Tabs

Me First And The Gimme Gimmes Chords & Tabs

Version: 2 Type: Tab 0 ratings
1 star 2 stars 3 stars 4 stars 5 stars
comments

Over The Rainbow Tab

   
*=palm mute
b=bend
/=slide

part 1
e|------------------------------------|
b|------------------------------------|
g|-------------------5------9-----7---|
d|--5---9---10---5---5---5--7--7--7--5|
a|--5---9---10---5---3---5--7--7--5--5|
e|--3---7---8----3-------3-----5-----3|  reapeat
(somewhere over the rainbow...)
[ Tab from: http://www.guitartabs.cc/tabs/m/me_first_and_the_gimme_gimmes/over_the_rainbow_tab_ver_2.html ]
PART 2
e|-----------------------------------------------------------------------|
b|-----------------------------------------------------------------------|
g|--------------------------------7-----------------------5-5555-7-77777-|
d|--5-5555555-7-7777777-5-5555555-7----5-333333-7-7777777-5-5555-7-77777-|
a|--5-3333333-5-5555555-3-3333333-5----5-333333-7-7777777-3-3333-5-55555-|
e|--3-3333333-5-5555555-3-3333333------3-333333-5-5555555----------------|
      *******   *******   *******        ******   *******   ****   *****
(someday ill wish upon a star and wake up where the....)


then repeat part 1 again


SOLO

e|------------------------------------------------------|
b|--3-0-3-0-3-0-3-0-0-3-1-3-1-3-1-3/8-8-7-7-8-10b12-8-7-|
g|---------------------------------------7--------------|
d|------------------------------------------------------|
a|------------------------------------------------------|
e|------------------------------------------------------|


part 3
e|---------------------------3--|
b|--------------------------3---|
g|--------------7----------4----|
d|--5--7-10-9-7-5---------5-----|
a|--5--7-10-9-7-5---------------|
e|--3--5-8--7-5-----------------|
(if pretty little bluebirds fly...)
Comments