Me First And The Gimme Gimmes - Natural Woman Chords & Tabs

 

Natural Woman Chords & Tabs

Me First And The Gimme Gimmes Chords & Tabs

Version: 1 Type: Bass Tab 0 ratings
1 star 2 stars 3 stars 4 stars 5 stars
comments

Natural Woman Bass Tab

   
Ultimate Guitar [http://www.ultimate-guitar.com]
Band:Me First And The Gimme Gimmes
Song:Natural Woman
Album:Take A Break

Tabbed by Kyle Gayne 
Contributed to UG by Michael Bryant from mxtabs.com

Intro (bass enters at 0:08)
G:-------------------------------------------------------------14~-13~-11-|
D:-9-\\-22222222------------------------222222224444444466666666----------|
A:-------------222222224444444422222222-----------------------------------|
E:------------------------------------------------------------------------|

G:------------------------------------------------------------------|
D:------------------------------------------------------------------|
A:-777777777777777766666666666666665555555555555555-----------------|x1
E:-------------------------------------------------5555555555544422-|

Verse 
G:------------------------------------------------------------------|
D:------------------------------------------------------------------|
A:-777777777777777766666666666666665555555555555555-----------------|x2
E:-------------------------------------------------5555555555555555-|

Pre Chorus
G:------------------|  |----4~-6-9~-11~-14--|
D:------------------|  |-6~-----------------|
A:------------------|x3|--------------------|x1
E:-2222222244444444-|  |--------------------|
[ Tab from: http://www.guitartabs.cc/tabs/m/me_first_and_the_gimme_gimmes/natural_woman_btab.html ]
Chorus
G:------------------|  |------------------|  |------------------|
D:------------------|  |------------------|  |------------------|
A:-77777777---------|x2|-7~-4~------------|x1|---------22222222-|x1
E:---------55555555-|  |-------7-4~-2~-0--|  |-22222222---------|

Repeat:
Verse
Pre Chorus
Chorus

Bridge
G:----------------------------------|
D:----------------------------------|
A:-7~~~~~~~-------------------------|x2
E:-----------------7~~~----9~~~-----|

G:----------------------------------|
D:----------------------------------|
A:-------------------------7~~~-----|x1
E:-7~~~~~~~--------0~~~-------------|

G:----------------------------------|
D:----------------------------------|
A:----------------------------------|x1
E:-77777777777777772222222222222222-|

Chorus
G:------------------|  |------------------|  
D:------------------|  |------------------|  
A:----77777---------|x1|-77777777---------|x2
E:---------55555555-|  |---------55555555-|  

|------------------|  |------------------|
|------------------|  |------------------|
|-7----------------|x1|------------------|x1
|------------------|  |-2222222255555555-|




Outro
G:------------------------------------------------------------------|
D:----------------------------9-\\-22222222-------------------------|
A:-7~--------------------------------------222222224444444422222222-|x1
E:------------------------------------------------------------------|

G:----------------------------------------------------------------------|
D:----------------------------------------------------------------------|
A:-777777777777777766666666666666665555555555555555---------------------|x1
E:-------------------------------------------------55555555555444220~~--|
Comments