Me First And The Gimme Gimmes - Mona Lisa Chords & Tabs

 

Mona Lisa Chords & Tabs

Me First And The Gimme Gimmes Chords & Tabs

Version: 1 Type: Bass Tab

Mona Lisa Bass Tab

PART1 at 01:14 (x)=single note \=slide down /=slide up #=play 7X *=play 14X
G-------------------------------------------------------------------------------------+
D---------------------------------------------------------------------445577----------+
A---------------------------------------5*-455555545555554555555-5*-55----------------+
E-(15)#-\/-(15)#-\3#/-(15)#-\3#/-(15)#\-------------------------------------3#-/(15)#-+
[ Tab from: http://www.guitartabs.cc/tabs/m/me_first_and_the_gimme_gimmes/mona_lisa_btab.html ]
PART2 #=play 7X (x)=single note S=slide slowly using every fret between 14 and 4
      /=slide up \=slide down *=play 14X
G---------------------------------------------------------------------------------+
D-------------------------------------------------2233/5553322--------------------+
A--------------------------------------------3*-33----------------5*--------------+
E-(15)#S-3#/(10)(10)(10)\888\55-33333-/(15)#-------------------3*----33333-/(15)#-+

PART3 *=play 14X #=play 7X /=slide up (x)=single note
G--------------------+
D--------------------+
A-3*----5*-----------+
E----3*----3#/-(15)#-+

PART4 *=play 14X #=play 7X /=slide up (x)=single note \=slide down
G----------------------------------------------------------------5/777----7---->
D---------------------------------------------------------------------7557-755->
A-----------------------------------------------5#-5034-5#-58553--------------->
E-3*-3*-/(15)(15)(15)(15)\(12)/(15)#\(12)/(15)#-------------------------------->

>----------------+
>------445577----+
>-5#-55----------+
>-------------3*-+

PART5 *=play 14X &=play 9X /=slide up (x)=single note
G-------------------+
D-------------------+
A-3*----5*----------+
E----3*----3&-/(15)-+