Me First And The Gimme Gimmes - Dont Cry For Me Argentina Chords & Tabs

 

Dont Cry For Me Argentina Chords & Tabs

Me First And The Gimme Gimmes Chords & Tabs

Version: 1 Type: Tab 0 ratings
1 star 2 stars 3 stars 4 stars 5 stars
comments

Dont Cry For Me Argentina Tab

Artist/band: Me first and the gimme gimmes
Song: Don't cry for me Argentina
Tabbed out by: Daniel McDougall
E-mail: ur_such_a_bore@hotmail.com

Key

  >  =  keep strumming (listen to the song for the length of strumming)
  P. =  Palm mute

Intro:

e|-------------------------|
b|-------------------------|
g|--7-7-77-----------------|
d|--7-7-77->--7--4--5------|
a|--5-5-55----7--4--5-hold-|
E|------------5--2--3------|

Verse: part 1

e|------------------------------------| 
b|------------------------------------| Straight after u have played this,
g|-----------------------7-7----------| go right into the intro but dont 
d|-2-2-----7-7----5-5----5-5->--7-7---| hold the last chord. and then go 
a|-2-2->>--7-7->--5-5->--5-5----7-7->-| straight into the chorus.
E|-0-0-----5-5----3-3-----------5-5---|
     P.      P.     P.     P.     P.

Chorus:
[ Tab from: http://www.guitartabs.cc/tabs/m/me_first_and_the_gimme_gimmes/dont_cry_for_me_argentina_tab.html ]
e|-----------------------------------|
b|-----------------------------------|
g|---------7----5---------5--5-------|
d|--5------7->--5->--5----5--5-hold--|
a|--5->>>--5----3----5->--3--3-------|
E|--3----------------3---------------|

Verse: part 2 

e|-----------------------------------|
b|-----------------------------------| Then play the verse:part 1 BUT, without
g|---------5-5----7-7----------------| the palm muting.
d|--5-5----5-5->--7-7->--5-5-----4---| and then  
a|--5-5->--3-3----5-5----5-5->>--4->-|         |
E|--3-3------------------3-3-----2---|         | 
      P.     P.     P.     P.    P.            | 
                                               |
  |-INTRO <------------------------------------

  |-CHORUS

Middle 8:

e|--------------------------------------------------|
b|--------------------------------------------------|
g|-------7--------9----------7----------7-77--5-----|
d|--7----7->-5----9->---7----7->--5-55--7-77--5->---|
a|--7->--5---5->--7-----7->--5----5-55--5-55--3-----|
E|--5--------3----------5---------3-33--------------|


   |-CHORUS


Outro: 
e|-----------------|
b|-----------------| Play the outro straight after the chorus.
g|-------5--5------|
d|--5----5--5-hold-|
a|--5->--3--3------|
E|--3--------------|
Comments