Me First And The Gimme Gimmes - Build Me Up Buttercup Chords & Tabs

 

Build Me Up Buttercup Chords & Tabs

Me First And The Gimme Gimmes Chords & Tabs

Version: 2 Type: Bass Tab 0 ratings
1 star 2 stars 3 stars 4 stars 5 stars
comments

Build Me Up Buttercup Bass Tab

   
Intro(bass starts at 0:06)
G:----------------------------------|
D:----------------------------------|
A:----------------------------------|x1
E:-33333333333333333333333333333333-|

Chorus
G:----------------------------------|
D:----------------------------------|
A:-3-33-333-------------------------|x2
E:---------0-00-0001-11-1113-33-333-|

G:----------------------------------|
D:----------------------------------|
A:-3-33-3331-11-111-----------------|x1
E:-----------------5555555544444444-|

G:----------------------------------|
D:----------------------------------|
A:-3-33-333----------8-87-5---------|x1
E:---------3-33-333--------33333333-|

Verse 
G:----------------------------------|
D:----------------------------------|
A:-333-----111-----33333333---------|x2
E:----3-333---1-111--------33333333-|
[ Tab from: http://www.guitartabs.cc/tabs/m/me_first_and_the_gimme_gimmes/build_me_up_buttercup_btab_ver_2.html ]
Pre Chorus 
G:------------------------------------------------------------------------|
D:---------------------------------------------------------------55555----|
A:-87-5-555555/10101010108-7-777777/121212121210-8-88888899999999-----875-|x1
E:------------------------------------------------------------------------|

G:---------------------------------|
D:---------------------------------|
A:---------------------------------|x1
E:-3-0h3-330h3-0h3-333333333333333-|

Chorus

Verse

Pre Chorus

Chorus

Interlude
G:--------------------------|
D:--------------------------|
A:--------------------------|x1
E:-333333333333333333333333-|

Chorus/Outro
G:----------------------------------|
D:----------------------------------|
A:-3-33-333-------------------------|x2
E:---------0-00-0001-11-1113-33-333-|

G:----------------------------------|
D:----------------------------------|
A:-3-33-3331-11-111-----------------|x1
E:-----------------5555555544444444-|

G:-----------------------------------------------------------|
D:-----------------------------------------------------------|
A:-3-33-333----------8-87-5--8-87-5--8-87-5-3~~~-------------|x1
E:---------3-33-333------------------------------------------|
Comments