Me First And The Gimme Gimmes - Build Me Up Buttercup Chords & Tabs

 

Build Me Up Buttercup Chords & Tabs

Me First And The Gimme Gimmes Chords & Tabs

Version: 1 Type: Bass Tab 0 ratings
1 star 2 stars 3 stars 4 stars 5 stars
comments

Build Me Up Buttercup Bass Tab

Build me up buttercup bass tab
key of C - Tempo 96 with changes

Drum Start
Count of 4

Intro

G-----------------------------------------
D---------2-2-2-2-3-3-3-3-5-5-5-5-5-5-5-5-
A-3-3-3-3---------------------------------
E-----------------------------------------

Chorus

G-----------------------------------------
D---------2-2-2-2-3-3-3-3-5-5-5-5-5-5-5-5-
A-3-3-3-3---------------------------------
E-----------------------------------------

G-----------------------------------------
D---------2-2-2-2-3-3-3-3-5-5-5-5-5-5-5-5-
A-3-3-3-3---------------------------------
E-----------------------------------------

G-----------------------------------------
D-----------------3-3-3-3-5-5-5-5-5-5-5-5-
A-3-3-3-3-1-1-1-1-------------------------
E-----------------------------------------

G-----------------------------------------
D-------------------2-0-------------------
A-3-3-3-3---------------3-----------------
E---------3-3-3-3-1-------3---------------

Verse

G-----------------------------------------
D-----------------------------------------
A-3-----1-----3---------------------------
E----3-----1-------1----------------------

G-----------------------------------------
D-----------------------------------------
A-3-----1-----3--------3--5---------------
E----3-----1-----1--1---------------------

G-----------------------------------------
D-----------------------------------------
A-----------------------------------------
E-1-1-1-1-2-2-2-2-3-3-3-3--3-3-2-2-3-3----

Break "ooo-ooo-ooo"

Chorus

G-----------------------------------------
D---------2-2-2-2-3-3-3-3-5-5-5-5-5-5-5-5-
A-3-3-3-3---------------------------------
E-----------------------------------------

G-----------------------------------------
D---------2-2-2-2-3-3-3-3-5-5-5-5-5-5-5-5-
A-3-3-3-3---------------------------------
E-----------------------------------------

G-----------------------------------------
D-----------------3-3-3-3-5-5-5-5-5-5-5-5-
A-3-3-3-3-1-1-1-1-------------------------
E-----------------------------------------
[ Tab from: http://www.guitartabs.cc/tabs/m/me_first_and_the_gimme_gimmes/build_me_up_buttercup_btab.html ]
G-----------------------------------------
D-------------------2-0-------------------
A-3-3-3-3---------------3-----------------
E---------3-3-3-3-1-------3---------------

Verse

G-----------------------------------------
D-----------------------------------------
A-3-----1-----3---------------------------
E----3-----1-------1----------------------

G-----------------------------------------
D-----------------------------------------
A-3-----1-----3--------3--5---------------
E----3-----1-----1--1---------------------

G-----------------------------------------
D-----------------------------------------
A-----------------------------------------
E-1-1-1-1-2-2-2-2-3-3-3-3--3-3-2-2-3-3----

Break "ooo-ooo-ooo"

Chorus

G-----------------------------------------
D---------2-2-2-2-3-3-3-3-5-5-5-5-5-5-5-5-
A-3-3-3-3---------------------------------
E-----------------------------------------

G-----------------------------------------
D---------2-2-2-2-3-3-3-3-5-5-5-5-5-5-5-5-
A-3-3-3-3---------------------------------
E-----------------------------------------

G-----------------------------------------
D-----------------3-3-3-3-5-5-5-5-5-5-5-5-
A-3-3-3-3-1-1-1-1-------------------------
E-----------------------------------------

G-----------------------------------------
D-------------------2-0-------------------
A-3-3-3-3---------------3-----------------
E---------3-3-3-3-1-------3---------------

Chorus

G-----------------------------------------
D---------2-2-2-2-3-3-3-3-5-5-5-5-5-5-5-5-
A-3-3-3-3---------------------------------
E-----------------------------------------

G-----------------------------------------
D---------2-2-2-2-3-3-3-3-5-5-5-5-5-5-5-5-
A-3-3-3-3---------------------------------
E-----------------------------------------

G-----------------------------------------
D-----------------3-3-3-3-5-5-5-5-5-5-5-5-
A-3-3-3-3-1-1-1-1-------------------------
E-----------------------------------------

G-----------------------------------------
D-------------------2-0-------------------
A-3-3-3-3---------------3-----------------
E---------3-3-3-3-1-------3---------------
Comments