Md 45 - Hells Motel Chords & Tabs

 

Hells Motel Chords & Tabs

Md 45 Chords & Tabs

Version: 1 Type: Tab 0 ratings
1 star 2 stars 3 stars 4 stars 5 stars
comments

Hells Motel Tab

Artist:MD.45
Song Hell's Motel


      P    P P     P   P P       P    P P
|----------------------------------------------|
|----------------------------------------------| x 2
|-9-9----7------5-5----------9-9----7------5---|
|-9-9--7-5--7-6-5-5---7------9-9--7-5--7-6-5---|
|-7-7--5----5-4-3-3-7-5-5-4--7-7--5----5-4-3---|
|-------------------5---3-2--------------------|

Palm mute:
|------------------------------------------------------------------|
|------------------------------------------------------------------|
|------------------------------------------------------------------|
|------------------------------------------------------------------|
|-2-2-2-2-2-2-2---2-2-2-2-2-2-2--2-2-2-2-2-2-2--2-2-2-2-2-2-2------|
|-0-0-0-0-0-0-0---0-0-0-0-0-0-0--0-0-0-0-0-0-0--0-0-0-0-0-0-0------|

|------------------------------------------------------------------|
|------------------------------------------------------------------|
|------------------------------------------------------------------|
|------------------------------------------------------------------|
|-3-3-3-3-3-3-3---3-3-3-3-3-3-3--3-3-3-3-3-3-3--3-3-3-3-3-3-3------|
|-1-1-1-1-1-1-1---1-1-1-1-1-1-1--1-1-1-1-1-1-1--1-1-1-1-1-1-1------|

|------------------------------------------------------------------|
|------------------------------------------------------------------|
|------------------------------------------------------------------|
|------------------------------------------------------------------|
|-2-2-2-2-2-2-2---2-2-2-2-2-2-2--2-2-2-2-2-2-2--2-2-2-2-2-2-2------|
|-0-0-0-0-0-0-0---0-0-0-0-0-0-0--0-0-0-0-0-0-0--0-0-0-0-0-0-0------|

|------------------------------------------------------------------------|
|-------------------------------------------Palm mute--------------------|
|------------------------------------------------------------------------|
|-10--7--10--7--10--7--10--7--10--7--10--7-------------------------------|
|-10--7--10--7--10--7--10--7--10--7--10--7--2-2-2-2-2-2-2--2-2-2-2-2-2-2-|
|--8--5---8--5---8--5---8--5---8--5---8--5--0-0-0-0-0-0-0--0-0-0-0-0-0-0-|

|------------------------------------------------------------------|
|------------------------------------------------------------------|
|-9-9----7------5-5----------9-9----7------4/5-5-5-5-5-4/5-5-5-5-5-|
|-9-9--7-5--7-6-5-5---7------9-9--7-5--7-6-4/5-5-5-5-5-4/5-5-5-5-5-|
|-7-7--5----5-4-3-3-7-5-5-4--7-7--5----5-4-2/3-3-3-3-3-2/3-3-3-3-3-|
|-------------------5---3-2----------------------------------------|

|------------------------------------------------------------------|
|------------------------------------------------------------------|
|---------6----7---------6----7---------6----7---------6----7------|
|-7h9-9-9----9---7h9-9-9----9---7h9-9-9----9---7h9-9-9----9--------|
|------------------------------------------------------------------|
|------------------------------------------------------------------|
[ Tab from: http://www.guitartabs.cc/tabs/m/md_45/hells_motel_tab.html ]
###Notes w/ "*" next to them are Guitar II ####
"Lord please spread my wings..."
|*7------*5--------------------------------------------------------|
|----------------*8-------*5------*6-------------*5-*6-*7-*8-------|
|-9-------7-------5----------------5-----*7------------------------|
|-9-------7-------5--------7-------5------7-------2--3--4--5-------|
|-7-------5-------3--------7-------3------7-------2--3--4--5-------|
|--------------------------5--------------5-------0--1--2--3-------|

|-------12~-12~-------12~-12~-------12~-12~-------12~-12~----------|
|-------12~-12~-------12~-12~-------12~-12~-------12~-12~----------|
|-12h13---------12h13---------12h13---------12h13------------------|
|------------------------------------------------------------------|
|------------------------------------------------------------------|
|------------------------------------------------------------------|
|                                                                  |
|------------------------------------------------------------------|
|------------------------------------------------------------------|
|---------6----7---------6----7---------6----7---------6----7------|
|-7h9-9-9----9---7h9-9-9----9---7h9-9-9----9---7h9-9-9----9--------|
|------------------------------------------------------------------|
|------------------------------------------------------------------|

"never talks about the past..."
|--------------------------------------|
|--------------------------------------|
|-/13~---12~\11~--\7~\6~\5~\4\3\2\1\---|
|--------------------------------------|
|--------------------------------------|
|--------------------------------------|

|------12----------------------12----------------------------------|
|----12--15p12-15^--15-12----12--15p12-15^-15-12----------( x 2 )--|
|-14^---------------------14^--------------------14^---------------|
|------------------------------------------------------------------|
|------------------------------------------------------------------|
|------------------------------------------------------------------|

|----------------------------------------------------------------------|
|-----12-15p12-----12-15p12-----12-15p12-----12-15p12-----12-15p12-----|
|-14^----------14^----------14^----------14^----------14^----------14^-|
|----------------------------------------------------------------------|
|----------------------------------------------------------------------|
|----------------------------------------------------------------------|

|-----------------------------------------------------|------------------------------|
|-15p12---15p12---15p12---15p12---15p12---15p12---15^-|-15^-15^-15^-15^-15^-15^\-----|
|------14------14------14------14------14------14-----|------------------------------|
|-----------------------------------------------------|------------------------------|
|-----------------------------------------------------|------------------------------|
|-----------------------------------------------------|------------------------------|
Comments