Md 45 - Day The Music Died Chords & Tabs

 

Day The Music Died Chords & Tabs

Md 45 Chords & Tabs

Version: 1 Type: Tab 0 ratings
1 star 2 stars 3 stars 4 stars 5 stars
comments

Day The Music Died Tab

Artist:MD.45
Song:The Day The Music Died

|-------------------------------------------------------|
|-------------------------------------------------------|
|-5--5-5--5-5--5-5--5-5-5-3---5--5-5--5-5--5-5--5-5-5-3-|
|-5--5-5--5-5--5-5--5-5-5-3---5--5-5--5-5--5-5--5-5-5-3-|
|-3--3-3--3-3--3-3--3-3-3-1---3--3-3--3-3--3-3--3-3-3-1-|
|-------------------------------------------------------|

Verse:
      p p p p p p p p p p p p p     p p p p p p p p p p p p p
|-------------------------------------------------------------|
|-------------------------------------------------------------|
|-4/5---------------------------4/5---------------------------|
|-4/5-5-5-5-5-5-5---------------4/5-5-5-5-5-5-5---------------|
|-2/3-3-3-3-3-3-3-5-5-6-6-6-6-6-2/3-3-3-3-3-3-3-5-5-6-6-6-6-6-|
|-----------------3-3-4-4-4-4-4-----------------3-3-4-4-4-4-4-|

      p p p p p p p p p p p p p
|-----------------------------------------------------|
|-----------------------------------------------------|
|-4/5-------------------------------------------------|
|-4/5-5-5-5-5-5-5----------------3---6---3---6---3-2--|
|-2/3-3-3-3-3-3-3-5-5-6-6-6-6-6--3---6---3---6---3-2--|
|-----------------3-3-4-4-4-4-4--1---4---1---4---1-0--|

[ Tab from: http://www.guitartabs.cc/tabs/m/md_45/day_the_music_died_tab.html ]
***this part is very quiet underneath above riff***
|----------------------|
|----------------------|
|--4/5-5-4/5-----------|
|--4/5-5-4/5-----------|
|----------------------|
|----------------------|

Chorus:
"This is make-believe..."
|-----------------------------------------|------------------------|
|-----------------------------------------|------------------------|
|-4/5-----------------4/5-----------------|------------------------|
|-4/5--5--6-----------4/5--5--6-----------|-3---6---3---6---3-2----|
|-2/3--5--6--6--5--3--2/3--5--6--6--5--3--|-3---6---3---6---3-2----|
|------3--4--6--5--3-------3--4--6--5--3--|-1---4---1---4---1-0----|


|----------------------------------3--4--3-------------------------|
|------------------------------4-6----------6--4-3---------------3-|
|-5----------------5----------------------------------------3--5---|
|----6--5-------------6--5-------------------------3--5--6---------|
|----------8--6-5-----------8--------------------------------------|
|------------------------------------------------------------------|
|                                                                  |
|------------------------------------------------------------------|
|------------------------------------------------------------------|
|-5-----------8-7--5-----------8-7-5-----------8-7----------3--5-7-|
|-5--6--5--3--8-7--5--6--5--3--8-7-5--6--5--3--8-7-3--5--6--3--5-7-|
|-3--6--5--3--6-5--3--6--5--3--6-5-3--6--5--3--6-5-3--5--6--1--3-5-|
|----4--3--1----------4--3--1---------4--3--1------1--3--4---------|
Comments