Mctell Ralph - Let Me Down Easy Chords & Tabs

 

Let Me Down Easy Chords & Tabs

Mctell Ralph Chords & Tabs

Version: 1 Type: Tab 0 ratings
1 star 2 stars 3 stars 4 stars 5 stars
comments

Let Me Down Easy Tab

   
                                    Let Me Down Easy                                      


                                                  © 1974 - Words and Music by Ralph McTell
Acoustic guitar
Fingerstyle or flatpicking



     Bbdim                Bbdim/A              D                    D/A                
E||--------6-----6-----|--------6-----6-----|--------2-----2-----|--------2-----2-----|
B||--------5-----5-----|--------5-----5-----|--------3-----3-----|--------3-----3-----|
G||-----6--6--6--6--6--|-----6--6--6--6--6--|-----2--2--2--2--2--|-----2--2--2--2--2--|
D||--5-----------------|--------------------|--0-----------------|--------------------|
A||--------------------|--0-----------------|--------------------|--0-----------------|
E||--------------------|--------------------|--------------------|--------------------|


  Bbdim                Bbdim/A              D                    D/A                
--------6-----6-----|--------6-----6-----|--------2-----2-----|--------2-----2-----|
--------5-----5-----|--------5-----5-----|--------3-----3-----|--------3-----3-----|
-----6--6--6--6--6--|-----6--6--6--6--6--|-----2--2--2--2--2--|-----2--2--2--2--2--|
--5-----------------|--------------------|--0-----------------|--------------------|
--------------------|--0-----------------|--------------------|--0-----------------|
--------------------|--------------------|--------------------|--------------------|


  Bbdim                Bbdim/A              D                    D/A                
--------6-----6-----|--------6-----6-----|--------2-----2-----|--------2-----2-----|
--------5-----5-----|--------5-----5-----|--------3-----3-----|--------3-----3-----|
-----6--6--6--6--6--|-----6--6--6--6--6--|-----2--2--2--2--2--|-----2--2--2--2--2--|
--5-----------------|--------------------|--0-----------------|--------------------|
--------------------|--0-----------------|--------------------|--0-----------------|
--------------------|--------------------|--------------------|--------------------|


  Gm6/Bb               G6/B                 Em7                  A7                 
--------0--0--0-----|--------0--0--0-----|--------0-----0-----|--------0-----0-----|
--------3-----3-----|--------3-----3-----|--------3-----3-----|--------2-----2-----|
-----0--0-----0--0--|-----0--0-----0--0--|-----0--0--0--0--0--|-----0--0--0--0--0--|
--------------------|--------------------|--------------------|--------------------|
--1-----------------|--2-----------------|--------------------|--0-----------------|
--------------------|--------------------|--0-----------------|--------------------|


  Dm                   Dm/C                 Dm/Bb                Dsus4/Bb           
--------1-----1-----|--------1-----1-----|--------1-----1-----|--------3-----3-----|
--------3-----3-----|--------3-----3-----|--------3-----3-----|--------3-----3-----|
-----2--2--2--2--2--|-----2--2--2--2--2--|-----2--2--2--2--2--|-----2--2--2--2--2--|
--0-----------------|--------------------|--------------------|--------------------|
--------------------|--3-----------------|--1-----------------|--1-----------------|
--------------------|--------------------|--------------------|--------------------|


  C                    Dm/Bb                Asus4                A                  
--------0-----0-----|--------1-----1-----|--------0-----0-----|--------0-----0-----|
--------1-----1-----|--------3-----3-----|--------3-----3-----|--------2-----2-----|
--------0--0--0--0--|-----2--2--2--2--2--|-----2--2--2--2--2--|-----2--2--2--2--2--|
-----2--------------|--------------------|--------------------|--------------------|
--3-----------------|--1-----------------|--0-----------------|--0-----------------|
--------------------|--------------------|--------------------|--------------------|


  D                    D/F#                 G                    A7                 
--------2-----2-----|--------2-----2-----|--------3-----3-----|--------0-----0-----|
--------3-----3-----|--------3-----3-----|--------0-----0-----|--------2-----2-----|
-----2--2--2--2--2--|-----2--2--2--2--2--|-----0--0--0--0--0--|-----0--0--0--0--0--|
--0-----------------|--------------------|--------------------|--------------------|
--------------------|--------------------|--------------------|--0-----------------|
--------------------|--2-----------------|--3-----------------|--------------------|


  D                    D/F#                 G                    A7                 
--------2-----2-----|--------2-----2-----|--------3-----3-----|--------0-----0-----|
--------3-----3-----|--------3-----3-----|--------0-----0-----|--------2-----2-----|
-----2--2--2--2--2--|-----2--2--2--2--2--|-----0--0--0--0--0--|-----0--0--0--0--0--|
--0-----------------|--------------------|--------------------|--------------------|
--------------------|--------------------|--------------------|--0-----------------|
--------------------|--2-----------------|--3-----------------|--------------------|


  D                    D/F#                 G                    A7                 
--------2-----2-----|--------2-----2-----|--------3-----3-----|--------0-----0-----|
--------3-----3-----|--------3-----3-----|--------0-----0-----|--------2h-3--2-----|
-----2--2--2--2--2--|-----2--2--2--2--2--|-----0--0--0--0--0--|-----0--0-----0--0--|
--0-----------------|--------------------|--------------------|--------------------|
--------------------|--------------------|--------------------|--0-----------------|
--------------------|--2-----------------|--3-----------------|--------------------|


  Gm6/Bb               C                    Dsus2                D                  
--------0-----0-----|--------0-----0-----|-----------0--------|--0h-2-----------2--|
--------3-----3-----|--------1-----1-----|--------3-----------|--3-----------3-----|
-----0--0--0--0--0--|--------0--0--0--0--|-----2-----------2--|-----------2--------|
--------------------|-----2--------------|--0-----------0-----|--------0-----------|
--1-----------------|--3-----------------|--------------------|--------------------|
--------------------|--------------------|--------------------|--------------------|


  Gm6/Bb               C                    Dsus2                D                  
--------0-----0-----|--------0-----0-----|-----------0--------|--0h-2-----------2--|
--------3-----3-----|--------1-----1-----|--------3-----------|--3-----------3-----|
-----0--0--0--0--0--|--------0--0--0--0--|-----2-----------2--|-----------2--------|
--------------------|-----2--------------|--0-----------0-----|--------0-----------|
--1-----------------|--3-----------------|--------------------|--------------------|
--------------------|--------------------|--------------------|--------------------|


  Bbdim                Bbdim/A              D                    D/A                
--------6-----6-----|--------6-----6-----|--------2-----2-----|--------2-----2-----|
--------5-----5-----|--------5-----5-----|--------3-----3-----|--------3-----3-----|
-----6--6--6--6--6--|-----6--6--6--6--6--|-----2--2--2--2--2--|-----2--2--2--2--2--|
--5-----------------|--------------------|--0-----------------|--------------------|
--------------------|--0-----------------|--------------------|--0-----------------|
--------------------|--------------------|--------------------|--------------------|


  Gm6/Bb               G6/B                 Em7                  A7                 
--------0--0--0-----|--------0--0--0-----|--------0-----0-----|--------0-----0-----|
--------3-----3-----|--------3-----3-----|--------3-----3-----|--------2-----2-----|
-----0--0-----0--0--|-----0--0-----0--0--|-----0--0--0--0--0--|-----0--0--0--0--0--|
--------------------|--------------------|--------------------|--------------------|
--1-----------------|--2-----------------|--------------------|--0-----------------|
--------------------|--------------------|--0-----------------|--------------------|


  Dm                   Dm/C                 Dm/Bb                Dsus4/Bb           
--------1-----1-----|--------1-----1-----|--------1-----1-----|--------3-----3-----|
--------3-----3-----|--------3-----3-----|--------3-----3-----|--------3-----3-----|
-----2--2--2--2--2--|-----2--2--2--2--2--|-----2--2--2--2--2--|-----2--2--2--2--2--|
--0-----------------|--------------------|--------------------|--------------------|
--------------------|--3-----------------|--1-----------------|--1-----------------|
--------------------|--------------------|--------------------|--------------------|

[ Tab from: http://www.guitartabs.cc/tabs/m/mctell_ralph/let_me_down_easy_tab.html ]
  C                    Dm/Bb                Asus4                A                  
--------0-----0-----|--------1-----1-----|--------0-----0-----|--------0-----0-----|
--------1-----1-----|--------3-----3-----|--------3-----3-----|--------2-----2-----|
--------0--0--0--0--|-----2--2--2--2--2--|-----2--2--2--2--2--|-----2--2--2--2--2--|
-----2--------------|--------------------|--------------------|--------------------|
--3-----------------|--1-----------------|--0-----------------|--0-----------------|
--------------------|--------------------|--------------------|--------------------|


  D                    D/F#                 G                    A7                 
--------2-----2-----|--------2-----2-----|--------3-----3-----|--------0-----0-----|
--------3-----3-----|--------3-----3-----|--------0-----0-----|--------2-----2-----|
-----2--2--2--2--2--|-----2--2--2--2--2--|-----0--0--0--0--0--|-----0--0--0--0--0--|
--0-----------------|--------------------|--------------------|--------------------|
--------------------|--------------------|--------------------|--0-----------------|
--------------------|--2-----------------|--3-----------------|--------------------|


  D                    D/F#                 G                    A7                 
--------2-----2-----|--------2-----2-----|--------3-----3-----|--------0-----0-----|
--------3-----3-----|--------3-----3-----|--------0-----0-----|--------2-----2-----|
-----2--2--2--2--2--|-----2--2--2--2--2--|-----0--0--0--0--0--|-----0--0--0--0--0--|
--0-----------------|--------------------|--------------------|--------------------|
--------------------|--------------------|--------------------|--0-----------------|
--------------------|--2-----------------|--3-----------------|--------------------|


  D                    D/F#                 G                    A7                 
--------2-----2-----|--------2-----2-----|--------3-----3-----|--------0-----0-----|
--------3-----3-----|--------3-----3-----|--------0-----0-----|--------2h-3--2-----|
-----2--2--2--2--2--|-----2--2--2--2--2--|-----0--0--0--0--0--|-----0--0-----0--0--|
--0-----------------|--------------------|--------------------|--------------------|
--------------------|--------------------|--------------------|--0-----------------|
--------------------|--2-----------------|--3-----------------|--------------------|


  Gm6/Bb               C                    Dsus2                D                  
--------0-----0-----|--------0-----0-----|-----------0--------|--0h-2-----------2--|
--------3-----3-----|--------1-----1-----|--------3-----------|--3-----------3-----|
-----0--0--0--0--0--|--------0--0--0--0--|-----2-----------2--|-----------2--------|
--------------------|-----2--------------|--0-----------0-----|--------0-----------|
--1-----------------|--3-----------------|--------------------|--------------------|
--------------------|--------------------|--------------------|--------------------|


  Gm6/Bb               C                    Dsus2                D                  
--------0-----0-----|--------0-----0-----|-----------0--------|--0h-2-----------2--|
--------3-----3-----|--------1-----1-----|--------3-----------|--3-----------3-----|
-----0--0--0--0--0--|--------0--0--0--0--|-----2-----------2--|-----------2--------|
--------------------|-----2--------------|--0-----------0-----|--------0-----------|
--1-----------------|--3-----------------|--------------------|--------------------|
--------------------|--------------------|--------------------|--------------------|


  Bbdim                Bbdim/A              D                    D/A                
--------6-----6-----|--------6-----6-----|--------2-----2-----|--------2-----2-----|
--------5-----5-----|--------5-----5-----|--------3-----3-----|--------3-----3-----|
-----6--6--6--6--6--|-----6--6--6--6--6--|-----2--2--2--2--2--|-----2--2--2--2--2--|
--5-----------------|--------------------|--0-----------------|--------------------|
--------------------|--0-----------------|--------------------|--0-----------------|
--------------------|--------------------|--------------------|--------------------|


  Gm6/Bb               G6/B                 Em7                  A7                 
--------0--0--0-----|--------0--0--0-----|--------0-----0-----|--------0-----0-----|
--------3-----3-----|--------3-----3-----|--------3-----3-----|--------2-----2-----|
-----0--0-----0--0--|-----0--0-----0--0--|-----0--0--0--0--0--|-----0--0--0--0--0--|
--------------------|--------------------|--------------------|--------------------|
--1-----------------|--2-----------------|--------------------|--0-----------------|
--------------------|--------------------|--0-----------------|--------------------|


  Dm                   Dm/C                 Dm/Bb                Dsus4/Bb           
--------1-----1-----|--------1-----1-----|--------1-----1-----|--------3-----3-----|
--------3-----3-----|--------3-----3-----|--------3-----3-----|--------3-----3-----|
-----2--2--2--2--2--|-----2--2--2--2--2--|-----2--2--2--2--2--|-----2--2--2--2--2--|
--0-----------------|--------------------|--------------------|--------------------|
--------------------|--3-----------------|--1-----------------|--1-----------------|
--------------------|--------------------|--------------------|--------------------|


  C                    Dm/Bb                Asus4                A                  
--------0-----0-----|--------1-----1-----|--------0-----0-----|--------0-----0-----|
--------1-----1-----|--------3-----3-----|--------3-----3-----|--------2-----2-----|
--------0--0--0--0--|-----2--2--2--2--2--|-----2--2--2--2--2--|-----2--2--2--2--2--|
-----2--------------|--------------------|--------------------|--------------------|
--3-----------------|--1-----------------|--0-----------------|--0-----------------|
--------------------|--------------------|--------------------|--------------------|


  D                    D/F#                 G                    A7                 
--------2-----2-----|--------2-----2-----|--------3-----3-----|--------0-----0-----|
--------3-----3-----|--------3-----3-----|--------0-----0-----|--------2-----2-----|
-----2--2--2--2--2--|-----2--2--2--2--2--|-----0--0--0--0--0--|-----0--0--0--0--0--|
--0-----------------|--------------------|--------------------|--------------------|
--------------------|--------------------|--------------------|--0-----------------|
--------------------|--2-----------------|--3-----------------|--------------------|


  D                    D/F#                 G                    A7                 
--------2-----2-----|--------2-----2-----|--------3-----3-----|--------0-----0-----|
--------3-----3-----|--------3-----3-----|--------0-----0-----|--------2-----2-----|
-----2--2--2--2--2--|-----2--2--2--2--2--|-----0--0--0--0--0--|-----0--0--0--0--0--|
--0-----------------|--------------------|--------------------|--------------------|
--------------------|--------------------|--------------------|--0-----------------|
--------------------|--2-----------------|--3-----------------|--------------------|


  D                    D/F#                 G                    A7                 
--------2-----2-----|--------2-----2-----|--------3-----3-----|--------0-----0-----|
--------3-----3-----|--------3-----3-----|--------0-----0-----|--------2h-3--2-----|
-----2--2--2--2--2--|-----2--2--2--2--2--|-----0--0--0--0--0--|-----0--0-----0--0--|
--0-----------------|--------------------|--------------------|--------------------|
--------------------|--------------------|--------------------|--0-----------------|
--------------------|--2-----------------|--3-----------------|--------------------|


  Gm6/Bb               C                    Dsus2                D                  
--------0-----0-----|--------0-----0-----|-----------0--------|--0h-2-----------2--|
--------3-----3-----|--------1-----1-----|--------3-----------|--3-----------3-----|
-----0--0--0--0--0--|--------0--0--0--0--|-----2-----------2--|-----------2--------|
--------------------|-----2--------------|--0-----------0-----|--------0-----------|
--1-----------------|--3-----------------|--------------------|--------------------|
--------------------|--------------------|--------------------|--------------------|


  Gm6/Bb               C                    Dsus2                D             
--------0-----0-----|--------0-----0-----|-----------0--------|--2------------|
--------3-----3-----|--------1-----1-----|--------3-----------|--3------------|
-----0--0--0--0--0--|--------0--0--0--0--|-----2-----------2--|--2------------|
--------------------|-----2--------------|--0-----------0-----|--0------------|
--1-----------------|--3-----------------|--------------------|---------------|
--------------------|--------------------|--------------------|---------------|


                
--------------||
--------------||
--------------||
--------------||
--------------||
--------------||


Comments